  0
SECTION
  2
HEADER
  9
$ACADVER
  1
AC1009
  9
$DWGCODEPAGE
  3
ansi_932
  9
$INSBASE
 10
0.0
 20
0.0
 30
0.0
  9
$EXTMIN
 10
-899.9999999999999
 20
-1344.300590265625
 30
0.0
  9
$EXTMAX
 10
899.9999999999999
 20
1331.786335
 30
0.0
  9
$LIMMIN
 10
0.0
 20
0.0
  9
$LIMMAX
 10
0.0
 20
0.0
  9
$ORTHOMODE
 70
     0
  9
$REGENMODE
 70
     1
  9
$FILLMODE
 70
     1
  9
$QTEXTMODE
 70
     0
  9
$MIRRTEXT
 70
     1
  9
$DRAGMODE
 70
     2
  9
$LTSCALE
 40
50.8
  9
$OSMODE
 70
  4327
  9
$ATTMODE
 70
     1
  9
$TEXTSIZE
 40
0.0
  9
$TRACEWID
 40
1.0
  9
$TEXTSTYLE
  7
STANDARD
  9
$CLAYER
  8
DATA
  9
$CELTYPE
  6
BYLAYER
  9
$CECOLOR
 62
   256
  9
$DIMSCALE
 40
1.0
  9
$DIMASZ
 40
0.18
  9
$DIMEXO
 40
0.0625
  9
$DIMDLI
 40
0.38
  9
$DIMRND
 40
0.0
  9
$DIMDLE
 40
0.0
  9
$DIMEXE
 40
0.18
  9
$DIMTP
 40
0.0
  9
$DIMTM
 40
0.0
  9
$DIMTXT
 40
0.18
  9
$DIMCEN
 40
0.09
  9
$DIMTSZ
 40
0.0
  9
$DIMTOL
 70
     0
  9
$DIMLIM
 70
     0
  9
$DIMTIH
 70
     1
  9
$DIMTOH
 70
     1
  9
$DIMSE1
 70
     0
  9
$DIMSE2
 70
     0
  9
$DIMTAD
 70
     0
  9
$DIMZIN
 70
     0
  9
$DIMBLK
  1

  9
$DIMASO
 70
     1
  9
$DIMSHO
 70
     1
  9
$DIMPOST
  1

  9
$DIMAPOST
  1

  9
$DIMALT
 70
     0
  9
$DIMALTD
 70
     2
  9
$DIMALTF
 40
25.4
  9
$DIMLFAC
 40
1.0
  9
$DIMTOFL
 70
     0
  9
$DIMTVP
 40
0.0
  9
$DIMTIX
 70
     0
  9
$DIMSOXD
 70
     0
  9
$DIMSAH
 70
     0
  9
$DIMBLK1
  1

  9
$DIMBLK2
  1

  9
$DIMSTYLE
  2
STANDARD
  9
$DIMCLRD
 70
     0
  9
$DIMCLRE
 70
     0
  9
$DIMCLRT
 70
     0
  9
$DIMTFAC
 40
1.0
  9
$DIMGAP
 40
0.09
  9
$LUNITS
 70
     2
  9
$LUPREC
 70
     4
  9
$SKETCHINC
 40
0.1
  9
$FILLETRAD
 40
0.0
  9
$AUNITS
 70
     0
  9
$AUPREC
 70
     0
  9
$MENU
  1
acad
  9
$ELEVATION
 40
0.0
  9
$PELEVATION
 40
0.0
  9
$THICKNESS
 40
0.0
  9
$LIMCHECK
 70
     0
  9
$CHAMFERA
 40
0.0
  9
$CHAMFERB
 40
0.0
  9
$SKPOLY
 70
     0
  9
$TDCREATE
 40
2459142.474571748
  9
$TDUPDATE
 40
2459142.482002292
  9
$TDINDWG
 40
0.0008772569
  9
$TDUSRTIMER
 40
0.0008772106
  9
$USRTIMER
 70
     1
  9
$ANGBASE
 50
0.0
  9
$ANGDIR
 70
     0
  9
$PDMODE
 70
     1
  9
$PDSIZE
 40
-2.0
  9
$PLINEWID
 40
0.0
  9
$COORDS
 70
     1
  9
$SPLFRAME
 70
     0
  9
$SPLINETYPE
 70
     6
  9
$SPLINESEGS
 70
     8
  9
$ATTDIA
 70
     1
  9
$ATTREQ
 70
     1
  9
$HANDLING
 70
     1
  9
$HANDSEED
  5
36B
  9
$SURFTAB1
 70
     6
  9
$SURFTAB2
 70
     6
  9
$SURFTYPE
 70
     6
  9
$SURFU
 70
     6
  9
$SURFV
 70
     6
  9
$UCSNAME
  2

  9
$UCSORG
 10
0.0
 20
0.0
 30
0.0
  9
$UCSXDIR
 10
1.0
 20
0.0
 30
0.0
  9
$UCSYDIR
 10
0.0
 20
1.0
 30
0.0
  9
$PUCSNAME
  2

  9
$PUCSORG
 10
0.0
 20
0.0
 30
0.0
  9
$PUCSXDIR
 10
1.0
 20
0.0
 30
0.0
  9
$PUCSYDIR
 10
0.0
 20
1.0
 30
0.0
  9
$USERI1
 70
     0
  9
$USERI2
 70
     0
  9
$USERI3
 70
     0
  9
$USERI4
 70
     0
  9
$USERI5
 70
     0
  9
$USERR1
 40
0.0
  9
$USERR2
 40
0.0
  9
$USERR3
 40
0.0
  9
$USERR4
 40
0.0
  9
$USERR5
 40
0.0
  9
$WORLDVIEW
 70
     1
  9
$SHADEDGE
 70
     3
  9
$SHADEDIF
 70
    70
  9
$TILEMODE
 70
     1
  9
$MAXACTVP
 70
    64
  9
$PLIMCHECK
 70
     0
  9
$PEXTMIN
 10
1.000000000000000E+20
 20
1.000000000000000E+20
 30
1.000000000000000E+20
  9
$PEXTMAX
 10
-1.000000000000000E+20
 20
-1.000000000000000E+20
 30
-1.000000000000000E+20
  9
$PLIMMIN
 10
0.0
 20
0.0
  9
$PLIMMAX
 10
12.0
 20
9.0
  9
$UNITMODE
 70
     0
  9
$VISRETAIN
 70
     0
  9
$PLINEGEN
 70
     1
  9
$PSLTSCALE
 70
     0
  0
ENDSEC
  0
SECTION
  2
TABLES
  0
TABLE
  2
VPORT
 70
     1
  0
VPORT
  2
*ACTIVE
 70
     0
 10
0.0
 20
0.0
 11
1.0
 21
1.0
 12
-0.0000000000007958
 22
-6.257127632811944
 13
0.0
 23
0.0
 14
1.0
 24
1.0
 15
0.0
 25
0.0
 16
0.0
 26
0.0
 36
1.0
 17
0.0
 27
0.0
 37
0.0
 40
2696.79165969708
 41
2.443378119001919
 42
50.0
 43
0.0
 44
0.0
 50
0.0
 51
0.0
 71
     0
 72
  2000
 73
     1
 74
     1
 75
     0
 76
     0
 77
     0
 78
     0
  0
ENDTAB
  0
TABLE
  2
LTYPE
 70
    11
  0
LTYPE
  2
CONTINUOUS
 70
     0
  3
Solid line
 72
    65
 73
     0
 40
0.0
  0
ENDTAB
  0
TABLE
  2
LAYER
 70
     5
  0
LAYER
  2
0
 70
     0
 62
     7
  6
CONTINUOUS
  0
LAYER
  2
HIBINO-BASE
 70
     0
 62
     7
  6
CONTINUOUS
  0
LAYER
  2
SPEC
 70
     0
 62
     7
  6
CONTINUOUS
  0
LAYER
  2
DIMNSIONS
 70
     0
 62
     7
  6
CONTINUOUS
  0
LAYER
  2
DATA
 70
     0
 62
     7
  6
CONTINUOUS
  0
ENDTAB
  0
TABLE
  2
STYLE
 70
     2
  0
STYLE
  2
STANDARD
 70
     0
 40
0.0
 41
1.0
 50
0.0
 71
     0
 42
0.0
  3
txt
  4
BIGFONT.SHX
  0
ENDTAB
  0
TABLE
  2
VIEW
 70
     0
  0
ENDTAB
  0
TABLE
  2
UCS
 70
     0
  0
ENDTAB
  0
TABLE
  2
APPID
 70
     3
  0
APPID
  2
ACAD
 70
     0
  0
APPID
  2
ACAD_MLEADERVER
 70
     0
  0
APPID
  2
ACADANNOPO
 70
     0
  0
ENDTAB
  0
TABLE
  2
DIMSTYLE
 70
     1
  0
DIMSTYLE
  2
STANDARD
 70
     0
  3

  4

  5

  6

  7

 40
1.0
 41
0.18
 42
0.0625
 43
0.38
 44
0.18
 45
0.0
 46
0.0
 47
0.0
 48
0.0
140
0.18
141
0.09
142
0.0
143
25.4
144
1.0
145
0.0
146
1.0
147
0.09
 71
     0
 72
     0
 73
     1
 74
     1
 75
     0
 76
     0
 77
     0
 78
     0
170
     0
171
     2
172
     0
173
     0
174
     0
175
     0
176
     0
177
     0
178
     0
  0
ENDTAB
  0
ENDSEC
  0
SECTION
  2
BLOCKS
  0
BLOCK
  8
DATA
  2
$MODEL_SPACE
 70
     0
 10
0.0
 20
0.0
 30
0.0
  3
$MODEL_SPACE
  1

  0
ENDBLK
  5
338
  8
DATA
  0
BLOCK
 67
     1
  8
DATA
  2
$PAPER_SPACE
 70
     0
 10
0.0
 20
0.0
 30
0.0
  3
$PAPER_SPACE
  1

  0
ENDBLK
  5
336
 67
     1
  8
DATA
  0
ENDSEC
  0
SECTION
  2
ENTITIES
  0
LINE
  5
2C
  8
HIBINO-BASE
  6
CONTINUOUS
 62
     7
 10
-899.9999999999999
 20
1331.786335
 30
0.0
 11
899.9999999999999
 21
1331.786335
 31
0.0
  0
LINE
  5
2D
  8
HIBINO-BASE
  6
CONTINUOUS
 62
     7
 10
899.9999999999999
 20
-1268.213665
 30
0.0
 11
-899.9999999999999
 21
-1268.213665
 31
0.0
  0
LINE
  5
2E
  8
HIBINO-BASE
  6
CONTINUOUS
 62
     7
 10
-899.9999999999999
 20
-1268.213665
 30
0.0
 11
-899.9999999999999
 21
1331.786335
 31
0.0
  0
LINE
  5
2F
  8
HIBINO-BASE
  6
CONTINUOUS
 62
     7
 10
899.9999999999999
 20
1331.786335
 30
0.0
 11
899.9999999999999
 21
-1268.213665
 31
0.0
  0
LINE
  5
30
  8
HIBINO-BASE
  6
CONTINUOUS
 62
     7
 10
0.0000000000001421
 20
-1043.213665
 30
0.0
 11
899.9999999999999
 21
-1043.213665
 31
0.0
  0
LINE
  5
31
  8
HIBINO-BASE
  6
CONTINUOUS
 62
     7
 10
0.0000000000001421
 20
-1268.213665
 30
0.0
 11
0.0000000000001421
 21
-1043.213665
 31
0.0
  0
TEXT
  5
32
  8
HIBINO-BASE
 62
     7
 10
9.000000000000199
 20
-1068.300598333333
 30
0.0
 40
16.28841145833333
  1
NOTE
 41
0.7
 11
9.000000000000199
 21
-1052.012186875
 31
0.0
 73
     3
  0
LINE
  5
33
  8
HIBINO-BASE
  6
CONTINUOUS
 62
     7
 10
350.0000000000001
 20
-1268.213665
 30
0.0
 11
350.0000000000001
 21
-1043.213665
 31
0.0
  0
TEXT
  5
34
  8
HIBINO-BASE
 62
     7
 10
358.9999999999999
 20
-1068.300598333333
 30
0.0
 40
16.28841145833333
  1
TITLE
 41
0.7
 11
358.9999999999999
 21
-1052.012186875
 31
0.0
 73
     3
  0
LINE
  5
35
  8
HIBINO-BASE
  6
CONTINUOUS
 62
     7
 10
0.0000000000001421
 20
-1168.213665
 30
0.0
 11
899.9999999999999
 21
-1168.213665
 31
0.0
  0
TEXT
  5
36
  8
HIBINO-BASE
 62
     7
 10
483.9999999999999
 20
-1192.737398333333
 30
0.0
 40
16.28841145833333
  1
DRAWN
 41
0.7
 11
483.9999999999999
 21
-1176.448986875
 31
0.0
 73
     3
  0
TEXT
  5
37
  8
HIBINO-BASE
 62
     7
 10
233.9999999999999
 20
-1192.737398333333
 30
0.0
 40
16.28841145833333
  1
DATE
 41
0.7
 11
233.9999999999999
 21
-1176.448986875
 31
0.0
 73
     3
  0
TEXT
  5
38
  8
HIBINO-BASE
 62
     7
 10
133.9999999999999
 20
-1192.737398333333
 30
0.0
 40
16.28841145833333
  1
SCALE
 41
0.7
 11
133.9999999999999
 21
-1176.448986875
 31
0.0
 73
     3
  0
TEXT
  5
39
  8
HIBINO-BASE
 62
     7
 10
358.9999999999999
 20
-1192.737398333333
 30
0.0
 40
16.28841145833333
  1
DESIGN
 41
0.7
 11
358.9999999999999
 21
-1176.448986875
 31
0.0
 73
     3
  0
TEXT
  5
3A
  8
HIBINO-BASE
 62
     7
 10
733.9999999999999
 20
-1192.737398333333
 30
0.0
 40
16.28841145833333
  1
DRAWING NO.
 41
0.7
 11
733.9999999999999
 21
-1176.448986875
 31
0.0
 73
     3
  0
TEXT
  5
3B
  8
HIBINO-BASE
 62
     7
 10
608.9999999999999
 20
-1192.737398333333
 30
0.0
 40
16.28841145833333
  1
CHECK
 41
0.7
 11
608.9999999999999
 21
-1176.448986875
 31
0.0
 73
     3
  0
LINE
  5
3C
  8
HIBINO-BASE
  6
CONTINUOUS
 62
     7
 10
143.7500000000001
 20
-1255.713665
 30
0.0
 11
181.2500000000001
 21
-1218.213665
 31
0.0
  0
TEXT
  5
3D
  8
HIBINO-BASE
 62
     7
 10
137.5000000000001
 20
-1229.303098333333
 30
0.0
 40
16.28841145833333
  1
1
 41
0.7
 11
137.5000000000001
 21
-1213.014686875
 31
0.0
 73
     3
  0
LINE
  5
3E
  8
HIBINO-BASE
  6
CONTINUOUS
 62
     7
 10
125.0000000000001
 20
-1268.213665
 30
0.0
 11
125.0000000000001
 21
-1168.213665
 31
0.0
  0
LINE
  5
3F
  8
HIBINO-BASE
  6
CONTINUOUS
 62
     7
 10
224.9999999999999
 20
-1268.213665
 30
0.0
 11
224.9999999999999
 21
-1168.213665
 31
0.0
  0
LINE
  5
40
  8
HIBINO-BASE
  6
CONTINUOUS
 62
     7
 10
474.9999999999999
 20
-1168.213665
 30
0.0
 11
474.9999999999999
 21
-1268.213665
 31
0.0
  0
LINE
  5
41
  8
HIBINO-BASE
  6
CONTINUOUS
 62
     7
 10
725.0000000000001
 20
-1168.213665
 30
0.0
 11
725.0000000000001
 21
-1268.213665
 31
0.0
  0
LINE
  5
42
  8
HIBINO-BASE
  6
CONTINUOUS
 62
     7
 10
599.9999999999999
 20
-1268.213665
 30
0.0
 11
599.9999999999999
 21
-1168.213665
 31
0.0
  0
TEXT
  5
43
  8
HIBINO-BASE
 62
     7
 10
233.5654000000001
 20
-1239.577198333333
 30
0.0
 40
16.28841145833333
  1
'20.10.
 41
0.7
 11
233.5654000000001
 21
-1223.288786874999
 31
0.0
 73
     3
  0
TEXT
  5
44
  8
HIBINO-BASE
 62
     7
 10
175.0000000000001
 20
-1248.053098333333
 30
0.0
 40
16.28841145833333
  1
10
 41
0.7
 11
175.0000000000001
 21
-1231.764686875
 31
0.0
 73
     3
  0
TEXT
  5
45
  8
HIBINO-BASE
 62
     7
 10
490.0581001103462
 20
-1239.577198333333
 30
0.0
 40
16.28841145833333
  1
N.Sasaki
 41
0.7
 11
490.0581001103462
 21
-1223.288786874999
 31
0.0
 73
     3
  0
TEXT
  5
46
  8
HIBINO-BASE
 62
     7
 10
38.83333333333368
 20
-1248.453665
 30
0.0
 40
32.57682291666666
  1
A4
 41
0.7
 11
38.83333333333368
 21
-1215.876842083333
 31
0.0
 73
     3
  0
TEXT
  5
47
  8
HIBINO-BASE
 62
     7
 10
9.583333333333286
 20
-1194.408215
 30
0.0
 40
16.28841145833333
  1
PAPER SIZE
 41
0.7
 11
9.583333333333286
 21
-1178.119803541666
 31
0.0
 73
     3
  0
TEXT
  5
48
  8
HIBINO-BASE
 62
     7
 10
-828.1599999999997
 20
-1332.300443
 30
0.0
 40
36.00044179687499
  1
Hibino Corporation
 41
0.7
 11
-828.1599999999997
 21
-1296.300001203125
 31
0.0
 73
     3
  0
TEXT
  5
49
  8
HIBINO-BASE
 62
     7
 10
500.6839000000001
 20
-1332.300443
 30
0.0
 40
36.00044179687499
  1
ヒビノ株式会社
 41
0.7
 11
500.6839000000001
 21
-1296.300001203125
 31
0.0
 73
     3
  0
LINE
  5
4A
  8
SPEC
  6
CONTINUOUS
 62
     7
 10
-824.9999999999998
 20
1231.786335
 30
0.0
 11
650.0000000000001
 21
1231.786335
 31
0.0
  0
LINE
  5
4B
  8
SPEC
  6
CONTINUOUS
 62
     7
 10
-824.9999999999998
 20
1194.286335
 30
0.0
 11
650.0000000000001
 21
1194.286335
 31
0.0
  0
LINE
  5
4C
  8
SPEC
  6
CONTINUOUS
 62
     7
 10
-824.9999999999998
 20
1231.786335
 30
0.0
 11
-824.9999999999998
 21
819.286335
 31
0.0
  0
TEXT
  5
4D
  8
SPEC
 62
     7
 10
-812.4999999999998
 20
1245.719035
 30
0.0
 40
24.4326171875
  1
仕様
 41
0.7
 11
-812.4999999999998
 21
1270.1516521875
 31
0.0
 73
     3
  0
LINE
  5
4E
  8
SPEC
  6
CONTINUOUS
 62
     7
 10
-499.9999999999999
 20
1231.786335
 30
0.0
 11
-499.9999999999999
 21
819.286335
 31
0.0
  0
LINE
  5
4F
  8
SPEC
  6
CONTINUOUS
 62
     7
 10
650.0000000000001
 20
1231.786335
 30
0.0
 11
650.0000000000001
 21
819.286335
 31
0.0
  0
TEXT
  5
50
  8
SPEC
 62
     7
 10
-816.0
 20
864.6655127777776
 30
0.0
 40
19.00314670138889
  1
寸法(W×H×D)
 41
0.7
 11
-816.0
 21
883.6686594791665
 31
0.0
 73
     3
  0
TEXT
  5
51
  8
SPEC
 62
     7
 10
-816.0
 20
827.1655127777776
 30
0.0
 40
19.00314670138889
  1
質量
 41
0.7
 11
-816.0
 21
846.1686594791665
 31
0.0
 73
     3
  0
TEXT
  5
52
  8
SPEC
 62
     7
 10
-490.9999999999999
 20
864.6655127777776
 30
0.0
 40
19.00314670138889
  1
251×387×233mm
 41
0.7
 11
-490.9999999999999
 21
883.6686594791665
 31
0.0
 73
     3
  0
TEXT
  5
53
  8
SPEC
 62
     7
 10
-490.9999999999999
 20
827.1655127777776
 30
0.0
 40
19.00314670138889
  1
5.4kg
 41
0.7
 11
-490.9999999999999
 21
846.1686594791665
 31
0.0
 73
     3
  0
LINE
  5
54
  8
SPEC
  6
CONTINUOUS
 62
     7
 10
-824.9999999999998
 20
1156.786335
 30
0.0
 11
650.0000000000001
 21
1156.786335
 31
0.0
  0
LINE
  5
55
  8
SPEC
  6
CONTINUOUS
 62
     7
 10
-824.9999999999998
 20
1119.286335
 30
0.0
 11
650.0000000000001
 21
1119.286335
 31
0.0
  0
LINE
  5
56
  8
SPEC
  6
CONTINUOUS
 62
     7
 10
-824.9999999999998
 20
1081.786335
 30
0.0
 11
650.0000000000001
 21
1081.786335
 31
0.0
  0
LINE
  5
57
  8
SPEC
  6
CONTINUOUS
 62
     7
 10
-824.9999999999998
 20
1044.286335
 30
0.0
 11
650.0000000000001
 21
1044.286335
 31
0.0
  0
LINE
  5
58
  8
SPEC
  6
CONTINUOUS
 62
     7
 10
-571.5
 20
1006.786335
 30
0.0
 11
650.0000000000001
 21
1006.786335
 31
0.0
  0
LINE
  5
59
  8
SPEC
  6
CONTINUOUS
 62
     7
 10
-824.9999999999998
 20
969.286335
 30
0.0
 11
650.0000000000001
 21
969.286335
 31
0.0
  0
LINE
  5
5A
  8
SPEC
  6
CONTINUOUS
 62
     7
 10
-824.9999999999998
 20
931.786335
 30
0.0
 11
650.0000000000001
 21
931.786335
 31
0.0
  0
LINE
  5
5B
  8
SPEC
  6
CONTINUOUS
 62
     7
 10
-824.9999999999998
 20
894.286335
 30
0.0
 11
650.0000000000001
 21
894.286335
 31
0.0
  0
LINE
  5
5C
  8
SPEC
  6
CONTINUOUS
 62
     7
 10
-824.9999999999998
 20
856.786335
 30
0.0
 11
650.0000000000001
 21
856.786335
 31
0.0
  0
LINE
  5
5D
  8
SPEC
  6
CONTINUOUS
 62
     7
 10
-824.9999999999998
 20
819.286335
 30
0.0
 11
650.0000000000001
 21
819.286335
 31
0.0
  0
TEXT
  5
5E
  8
SPEC
 62
     7
 10
-816.0
 20
1202.165512777778
 30
0.0
 40
19.00314670138889
  1
周波数特性(±3dB)
 41
0.7
 11
-816.0
 21
1221.168659479167
 31
0.0
 73
     3
  0
TEXT
  5
5F
  8
SPEC
 62
     7
 10
-816.0
 20
1164.665512777778
 30
0.0
 40
19.00314670138889
  1
許容入力※
 41
0.7
 11
-816.0
 21
1183.668659479167
 31
0.0
 73
     3
  0
TEXT
  5
60
  8
SPEC
 62
     7
 10
-816.0
 20
1127.165512777778
 30
0.0
 40
19.00314670138889
  1
感度(1W、1m)
 41
0.7
 11
-816.0
 21
1146.168659479167
 31
0.0
 73
     3
  0
TEXT
  5
61
  8
SPEC
 62
     7
 10
-816.0
 20
1089.665512777778
 30
0.0
 40
19.00314670138889
  1
最大音圧レベル(1m)
 41
0.7
 11
-816.0
 21
1108.668659479167
 31
0.0
 73
     3
  0
TEXT
  5
62
  8
SPEC
 62
     7
 10
-816.0
 20
1052.165512777778
 30
0.0
 40
19.00314670138889
  1
公称インピーダンス
 41
0.7
 11
-816.0
 21
1071.168659479167
 31
0.0
 73
     3
  0
TEXT
  5
63
  8
SPEC
 62
     7
 10
-816.0
 20
1014.665512777778
 30
0.0
 40
19.00314670138889
  1
ドライバー構成
 41
0.7
 11
-816.0
 21
1033.668659479167
 31
0.0
 73
     3
  0
TEXT
  5
64
  8
SPEC
 62
     7
 10
-816.0
 20
939.6655127777776
 30
0.0
 40
19.00314670138889
  1
クロスオーバー周波数
 41
0.7
 11
-816.0
 21
958.6686594791665
 31
0.0
 73
     3
  0
TEXT
  5
65
  8
SPEC
 62
     7
 10
-816.0
 20
902.1655127777776
 30
0.0
 40
19.00314670138889
  1
色
 41
0.7
 11
-816.0
 21
921.1686594791665
 31
0.0
 73
     3
  0
TEXT
  5
66
  8
SPEC
 62
     7
 10
-800.0
 20
778.6099999999999
 30
0.0
 40
19.00314670138889
  1
※ IECランダムノイズ、クレストファクター6dB、2時間
 41
0.7
 11
-800.0
 21
797.6131467013888
 31
0.0
 73
     3
  0
TEXT
  5
67
  8
SPEC
 62
     7
 10
-490.9999999999999
 20
1202.165512777778
 30
0.0
 40
19.00314670138889
  1
75Hz～20kHz
 41
0.7
 11
-490.9999999999999
 21
1221.168659479167
 31
0.0
 73
     3
  0
TEXT
  5
68
  8
SPEC
 62
     7
 10
-490.9999999999999
 20
1164.665512777778
 30
0.0
 40
19.00314670138889
  1
175W
 41
0.7
 11
-490.9999999999999
 21
1183.668659479167
 31
0.0
 73
     3
  0
TEXT
  5
69
  8
SPEC
 62
     7
 10
-490.9999999999999
 20
1127.165512777778
 30
0.0
 40
19.00314670138889
  1
89dB SPL
 41
0.7
 11
-490.9999999999999
 21
1146.168659479167
 31
0.0
 73
     3
  0
TEXT
  5
6A
  8
SPEC
 62
     7
 10
-490.9999999999999
 20
1089.665512777778
 30
0.0
 40
19.00314670138889
  1
117dB SPL(ピーク)
 41
0.7
 11
-490.9999999999999
 21
1108.668659479167
 31
0.0
 73
     3
  0
TEXT
  5
6B
  8
SPEC
 62
     7
 10
-490.9999999999999
 20
1052.165512777778
 30
0.0
 40
19.00314670138889
  1
4Ω
 41
0.7
 11
-490.9999999999999
 21
1071.168659479167
 31
0.0
 73
     3
  0
TEXT
  5
6C
  8
SPEC
 62
     7
 10
-490.9999999999999
 20
939.6655127777776
 30
0.0
 40
19.00314670138889
  1
3kHz
 41
0.7
 11
-490.9999999999999
 21
958.6686594791665
 31
0.0
 73
     3
  0
TEXT
  5
6D
  8
SPEC
 62
     7
 10
-490.9999999999999
 20
902.1655127777776
 30
0.0
 40
19.00314670138889
  1
黒
 41
0.7
 11
-490.9999999999999
 21
921.1686594791665
 31
0.0
 73
     3
  0
TEXT
  5
6E
  8
SPEC
 62
     7
 10
-490.9999999999999
 20
1014.665512777778
 30
0.0
 40
19.00314670138889
  1
6.5インチ(165mm)
 41
0.7
 11
-490.9999999999999
 21
1033.668659479167
 31
0.0
 73
     3
  0
TEXT
  5
6F
  8
SPEC
 62
     7
 10
-490.9999999999999
 20
977.1655127777776
 30
0.0
 40
19.00314670138889
  1
1インチ(25mm)
 41
0.7
 11
-490.9999999999999
 21
996.1686594791665
 31
0.0
 73
     3
  0
LINE
  5
70
  8
SPEC
  6
CONTINUOUS
 62
     7
 10
-571.5
 20
1044.286335
 30
0.0
 11
-571.5
 21
969.286335
 31
0.0
  0
TEXT
  5
71
  8
SPEC
 62
     7
 10
-562.5
 20
1014.665512777778
 30
0.0
 40
19.00314670138889
  1
LF
 41
0.7
 11
-562.5
 21
1033.668659479167
 31
0.0
 73
     3
  0
TEXT
  5
72
  8
SPEC
 62
     7
 10
-562.5
 20
977.1655127777776
 30
0.0
 40
19.00314670138889
  1
HF
 41
0.7
 11
-562.5
 21
996.1686594791665
 31
0.0
 73
     3
  0
TEXT
  5
73
  8
DIMNSIONS
 62
     7
 10
-199.9999999999999
 20
-1145.518765
 30
0.0
 40
24.4326171875
  1
(単位：mm)
 41
0.7
 11
-199.9999999999999
 21
-1121.0861478125
 31
0.0
 73
     3
  0
TEXT
  5
74
  8
DIMNSIONS
 62
     7
 10
75.0
 20
-962.6999999999999
 30
0.0
 40
27.14735243055556
  1
※1 センター振り分け
 41
0.7
 11
75.0
 21
-935.5526475694444
 31
0.0
 73
     3
  0
TEXT
  5
75
  8
DIMNSIONS
 62
     7
 10
75.0
 20
-1012.7
 30
0.0
 40
27.14735243055556
  1
※2 背面「MM-016-BT-J」用ねじ穴寸法
 41
0.7
 11
75.0
 21
-985.5526475694444
 31
0.0
 73
     3
  0
TEXT
  5
76
  8
DIMNSIONS
 62
     7
 10
355.5220838459737
 20
-585.2105307396356
 30
0.0
 40
27.14735243055558
  1
ねじ穴(4ヵ所)
 41
0.7
 11
355.5220838459737
 21
-558.0631783090801
 31
0.0
 73
     3
  0
LINE
  5
77
  8
DIMNSIONS
  6
CONTINUOUS
 62
     7
 10
-682.4124999999999
 20
-593.6134349996543
 30
0.0
 11
-735.0
 21
-593.6134349996543
 31
0.0
  0
LINE
  5
78
  8
DIMNSIONS
  6
CONTINUOUS
 62
     7
 10
-682.4124999999999
 20
-206.3865650003458
 30
0.0
 11
-735.0
 21
-206.3865650003458
 31
0.0
  0
LINE
  5
79
  8
DIMNSIONS
  6
CONTINUOUS
 62
     7
 10
-725.0
 20
-593.6134349996543
 30
0.0
 11
-725.0
 21
-206.3865650003458
 31
0.0
  0
LINE
  5
7A
  8
DIMNSIONS
  6
CONTINUOUS
 62
     7
 10
-725.0
 20
-593.6134349996543
 30
0.0
 11
-730.3586567622059
 21
-573.6146557027793
 31
0.0
  0
LINE
  5
7B
  8
DIMNSIONS
  6
CONTINUOUS
 62
     7
 10
-725.0
 20
-593.6134349996543
 30
0.0
 11
-719.6413432377941
 21
-573.6146557027793
 31
0.0
  0
LINE
  5
7C
  8
DIMNSIONS
  6
CONTINUOUS
 62
     7
 10
-725.0
 20
-206.3865650003458
 30
0.0
 11
-719.6413432377941
 21
-226.3853442972208
 31
0.0
  0
LINE
  5
7D
  8
DIMNSIONS
  6
CONTINUOUS
 62
     7
 10
-725.0
 20
-206.3865650003458
 30
0.0
 11
-730.3586567622059
 21
-226.3853442972208
 31
0.0
  0
TEXT
  5
7E
  8
DIMNSIONS
 62
     7
 10
-734.938888888889
 20
-426.4583333333334
 30
0.0
 40
27.14735243055558
  1
387
 50
90.0
 41
0.7
 11
-762.0862413194445
 21
-426.4583333333334
 31
0.0
 73
     3
  0
LINE
  5
7F
  8
DIMNSIONS
  6
CONTINUOUS
 62
     7
 10
-683.75
 20
-152.1601020810181
 30
0.0
 11
-735.0
 21
-152.1601020810181
 31
0.0
  0
LINE
  5
80
  8
DIMNSIONS
  6
CONTINUOUS
 62
     7
 10
-658.0
 20
80.53848709009549
 30
0.0
 11
-735.0
 21
80.53848709009549
 31
0.0
  0
LINE
  5
81
  8
DIMNSIONS
  6
CONTINUOUS
 62
     7
 10
-725.0
 20
-152.1601020810181
 30
0.0
 11
-725.0
 21
80.53848709009549
 31
0.0
  0
LINE
  5
82
  8
DIMNSIONS
  6
CONTINUOUS
 62
     7
 10
-725.0
 20
-152.1601020810181
 30
0.0
 11
-730.3586567622059
 21
-132.1613227841431
 31
0.0
  0
LINE
  5
83
  8
DIMNSIONS
  6
CONTINUOUS
 62
     7
 10
-725.0
 20
-152.1601020810181
 30
0.0
 11
-719.6413432377941
 21
-132.1613227841431
 31
0.0
  0
LINE
  5
84
  8
DIMNSIONS
  6
CONTINUOUS
 62
     7
 10
-725.0
 20
80.53848709009549
 30
0.0
 11
-719.6413432377941
 21
60.53970779322049
 31
0.0
  0
LINE
  5
85
  8
DIMNSIONS
  6
CONTINUOUS
 62
     7
 10
-725.0
 20
80.53848709009549
 30
0.0
 11
-730.3586567622059
 21
60.53970779322049
 31
0.0
  0
TEXT
  5
86
  8
DIMNSIONS
 62
     7
 10
-734.938888888889
 20
-62.26914082879463
 30
0.0
 40
27.14735243055558
  1
233
 50
90.0
 41
0.7
 11
-762.0862413194445
 21
-62.26914082879463
 31
0.0
 73
     3
  0
TEXT
  5
87
  8
DIMNSIONS
 62
     7
 10
201.4583333333335
 20
-143.3449751840801
 30
0.0
 40
19.00314670138889
  1
※1
 41
0.7
 11
201.4583333333335
 21
-124.3418284826912
 31
0.0
 73
     3
  0
LINE
  5
88
  8
DIMNSIONS
  6
CONTINUOUS
 62
     7
 10
121.0
 20
-368.226721949329
 30
0.0
 11
121.0
 21
-164.7327529618578
 31
0.0
  0
LINE
  5
89
  8
DIMNSIONS
  6
CONTINUOUS
 62
     7
 10
229.0
 20
-368.226721949329
 30
0.0
 11
229.0
 21
-164.7327529618578
 31
0.0
  0
LINE
  5
8A
  8
DIMNSIONS
  6
CONTINUOUS
 62
     7
 10
121.0
 20
-174.7327529618578
 30
0.0
 11
229.0
 21
-174.7327529618578
 31
0.0
  0
LINE
  5
8B
  8
DIMNSIONS
  6
CONTINUOUS
 62
     7
 10
121.0
 20
-174.7327529618578
 30
0.0
 11
140.998779296875
 21
-169.3740961996519
 31
0.0
  0
LINE
  5
8C
  8
DIMNSIONS
  6
CONTINUOUS
 62
     7
 10
121.0
 20
-174.7327529618578
 30
0.0
 11
140.998779296875
 21
-180.0914097240638
 31
0.0
  0
LINE
  5
8D
  8
DIMNSIONS
  6
CONTINUOUS
 62
     7
 10
229.0
 20
-174.7327529618578
 30
0.0
 11
209.001220703125
 21
-180.0914097240638
 31
0.0
  0
LINE
  5
8E
  8
DIMNSIONS
  6
CONTINUOUS
 62
     7
 10
229.0
 20
-174.7327529618578
 30
0.0
 11
209.001220703125
 21
-169.3740961996519
 31
0.0
  0
TEXT
  5
8F
  8
DIMNSIONS
 62
     7
 10
148.5416666666667
 20
-164.7938640729689
 30
0.0
 40
27.14735243055558
  1
108
 41
0.7
 11
148.5416666666667
 21
-137.6465116424133
 31
0.0
 73
     3
  0
LINE
  5
90
  8
DIMNSIONS
  6
CONTINUOUS
 62
     7
 10
-675.4124999999999
 20
-605.675
 30
0.0
 11
-675.4124999999999
 21
-678.675
 31
0.0
  0
LINE
  5
91
  8
DIMNSIONS
  6
CONTINUOUS
 62
     7
 10
-424.5875000000001
 20
-605.675
 30
0.0
 11
-424.5875000000001
 21
-678.675
 31
0.0
  0
LINE
  5
92
  8
DIMNSIONS
  6
CONTINUOUS
 62
     7
 10
-675.4124999999999
 20
-668.675
 30
0.0
 11
-424.5875000000001
 21
-668.675
 31
0.0
  0
LINE
  5
93
  8
DIMNSIONS
  6
CONTINUOUS
 62
     7
 10
-675.4124999999999
 20
-668.675
 30
0.0
 11
-655.4137207031249
 21
-663.3163432377941
 31
0.0
  0
LINE
  5
94
  8
DIMNSIONS
  6
CONTINUOUS
 62
     7
 10
-675.4124999999999
 20
-668.675
 30
0.0
 11
-655.4137207031249
 21
-674.0336567622059
 31
0.0
  0
LINE
  5
95
  8
DIMNSIONS
  6
CONTINUOUS
 62
     7
 10
-424.5875000000001
 20
-668.675
 30
0.0
 11
-444.5862792968751
 21
-674.0336567622059
 31
0.0
  0
LINE
  5
96
  8
DIMNSIONS
  6
CONTINUOUS
 62
     7
 10
-424.5875000000001
 20
-668.675
 30
0.0
 11
-444.5862792968751
 21
-663.3163432377941
 31
0.0
  0
TEXT
  5
97
  8
DIMNSIONS
 62
     7
 10
-576.4583333333334
 20
-658.736111111111
 30
0.0
 40
27.14735243055558
  1
251
 41
0.7
 11
-576.4583333333334
 21
-631.5887586805554
 31
0.0
 73
     3
  0
LINE
  5
98
  8
DIMNSIONS
  6
CONTINUOUS
 62
     7
 10
-105.8410870720076
 20
-216.8303031755827
 30
0.0
 11
24.19600877611791
 21
-220.1098167057655
 31
0.0
  0
LINE
  5
99
  8
DIMNSIONS
  6
CONTINUOUS
 62
     7
 10
-115.3711527731878
 20
-594.7101489569252
 30
0.0
 11
14.66594307493773
 21
-597.9896624871079
 31
0.0
  0
LINE
  5
9A
  8
DIMNSIONS
  6
CONTINUOUS
 62
     7
 10
14.19918745915118
 20
-219.8576985655226
 30
0.0
 11
4.669121757970998
 21
-597.7375443468651
 31
0.0
  0
LINE
  5
9B
  8
DIMNSIONS
  6
CONTINUOUS
 62
     7
 10
14.19918745915118
 20
-219.8576985655226
 30
0.0
 11
19.20800124743837
 21
-239.9469534072163
 31
0.0
  0
LINE
  5
9C
  8
DIMNSIONS
  6
CONTINUOUS
 62
     7
 10
14.19918745915118
 20
-219.8576985655226
 30
0.0
 11
8.492320021786794
 21
-239.7599104956725
 31
0.0
  0
LINE
  5
9D
  8
DIMNSIONS
  6
CONTINUOUS
 62
     7
 10
4.669121757970998
 20
-597.7375443468651
 30
0.0
 11
0.0116766768038952
 21
-577.5639333419864
 31
0.0
  0
LINE
  5
9E
  8
DIMNSIONS
  6
CONTINUOUS
 62
     7
 10
4.669121757970998
 20
-597.7375443468651
 30
0.0
 11
10.72246150338877
 21
-577.9379621899913
 31
0.0
  0
TEXT
  5
9F
  8
DIMNSIONS
 62
     7
 10
-1.168637601972314
 20
-434.996967105727
 30
0.0
 40
27.14735243055556
  1
378
 50
88.55531638625256
 41
0.7
 11
-28.30736074967096
 21
-434.3125331049961
 31
0.0
 73
     3
  0
TEXT
  5
A0
  8
DIMNSIONS
 62
     7
 10
-94.69714416715526
 20
-481.4294780376227
 30
0.0
 40
19.00314670138889
  1
※2
 50
88.55531638625256
 41
0.7
 11
-113.6942503705443
 21
-480.950374237111
 31
0.0
 73
     3
  0
LINE
  5
A1
  8
DIMNSIONS
  6
CONTINUOUS
 62
     7
 10
-337.1643243792228
 20
-569.3315108426896
 30
0.0
 11
-337.1643243792228
 21
-513.5957118647707
 31
0.0
  0
ARC
  5
A2
  8
DIMNSIONS
  6
CONTINUOUS
 62
     7
 10
-337.1643243792228
 20
-588.8664832464326
 30
0.0
 40
65.27077138166194
 50
57.83172846920683
 51
88.55531638625257
  0
LINE
  5
A3
  8
DIMNSIONS
  6
CONTINUOUS
 62
     7
 10
-335.5187298299266
 20
-523.6164593741266
 30
0.0
 11
-315.4294749882329
 21
-518.6076455858395
 31
0.0
  0
LINE
  5
A4
  8
DIMNSIONS
  6
CONTINUOUS
 62
     7
 10
-335.5187298299266
 20
-523.6164593741266
 30
0.0
 11
-315.6165178997767
 21
-529.323326811491
 31
0.0
  0
ARC
  5
A5
  8
DIMNSIONS
  6
CONTINUOUS
 62
     7
 10
-337.1643243792228
 20
-588.8664832464326
 30
0.0
 40
65.27077138166192
 50
90.0
 51
129.4837129581937
  0
LINE
  5
A6
  8
DIMNSIONS
  6
CONTINUOUS
 62
     7
 10
-337.1643243792228
 20
-523.5957118647707
 30
0.0
 11
-357.1631036760978
 21
-528.9543686269766
 31
0.0
  0
LINE
  5
A7
  8
DIMNSIONS
  6
CONTINUOUS
 62
     7
 10
-337.1643243792228
 20
-523.5957118647707
 30
0.0
 11
-357.1631036760978
 21
-518.2370551025648
 31
0.0
  0
TEXT
  5
A8
  8
DIMNSIONS
 62
     7
 10
-407.6720721669018
 20
-537.5857314224122
 30
0.0
 40
27.14735243055558
  1
1.5°
 50
23.58724091465014
 41
0.7
 11
-418.5349484085713
 21
-512.7064897991842
 31
0.0
 73
     3
  0
LINE
  5
A9
  8
DIMNSIONS
  6
CONTINUOUS
 62
     7
 10
231.2450641437312
 20
-432.9557332596153
 30
0.0
 11
335.5220838459738
 21
-537.2327529618578
 31
0.0
  0
LINE
  5
AA
  8
DIMNSIONS
  6
CONTINUOUS
 62
     7
 10
231.2450641437312
 20
-432.9557332596153
 30
0.0
 11
249.353417824445
 21
-442.993357611743
 31
0.0
  0
LINE
  5
AB
  8
DIMNSIONS
  6
CONTINUOUS
 62
     7
 10
231.2450641437312
 20
-432.9557332596153
 30
0.0
 11
241.9085462758789
 21
-450.7027477825602
 31
0.0
  0
LINE
  5
AC
  8
DIMNSIONS
  6
CONTINUOUS
 62
     7
 10
335.5220838459738
 20
-537.2327529618578
 30
0.0
 11
355.5220838459738
 21
-537.2327529618578
 31
0.0
  0
TEXT
  5
AD
  8
DIMNSIONS
 62
     7
 10
355.5220838459737
 20
-549.9327529618578
 30
0.0
 40
27.14735243055558
  1
壁取付金具「MM-016-BT-J」用
 41
0.7
 11
355.5220838459737
 21
-522.7854005313022
 31
0.0
 73
     3
  0
LINE
  5
AE
  8
DIMNSIONS
  6
CONTINUOUS
 62
     7
 10
-109.9695471277557
 20
-380.5292637176204
 30
0.0
 11
-52.04935111352991
 21
-381.9900012499423
 31
0.0
  0
LINE
  5
AF
  8
DIMNSIONS
  6
CONTINUOUS
 62
     7
 10
-111.2427182663014
 20
-431.0122014614127
 30
0.0
 11
-53.32252225207566
 21
-432.4729389937345
 31
0.0
  0
LINE
  5
B0
  8
DIMNSIONS
  6
CONTINUOUS
 62
     7
 10
-63.31934356904239
 20
-432.2208208534917
 30
0.0
 11
-66.3583671134787
 21
-552.7221672560927
 31
0.0
  0
LINE
  5
B1
  8
DIMNSIONS
  6
CONTINUOUS
 62
     7
 10
-62.04617243049663
 20
-381.7378831096994
 30
0.0
 11
-63.31934356904239
 21
-432.2208208534917
 31
0.0
  0
LINE
  5
B2
  8
DIMNSIONS
  6
CONTINUOUS
 62
     7
 10
-62.04617243049663
 20
-381.7378831096994
 30
0.0
 11
-57.03735864220943
 21
-401.8271379513931
 31
0.0
  0
LINE
  5
B3
  8
DIMNSIONS
  6
CONTINUOUS
 62
     7
 10
-62.04617243049663
 20
-381.7378831096994
 30
0.0
 11
-67.75303986786102
 21
-401.6400950398493
 31
0.0
  0
LINE
  5
B4
  8
DIMNSIONS
  6
CONTINUOUS
 62
     7
 10
-63.31934356904239
 20
-432.2208208534917
 30
0.0
 11
-67.97678865020949
 21
-412.047209848613
 31
0.0
  0
LINE
  5
B5
  8
DIMNSIONS
  6
CONTINUOUS
 62
     7
 10
-63.31934356904239
 20
-432.2208208534917
 30
0.0
 11
-57.26600382362462
 21
-412.4212386966178
 31
0.0
  0
TEXT
  5
B6
  8
DIMNSIONS
 62
     7
 10
-75.03390674523258
 20
-552.5033716161378
 30
0.0
 40
27.14735243055556
  1
50.5
 50
88.55531638625256
 41
0.7
 11
-102.1726298929312
 21
-551.8189376154069
 31
0.0
 73
     3
  0
LINE
  5
B7
  8
DIMNSIONS
  6
CONTINUOUS
 62
     7
 10
-105.8410870720076
 20
-216.8303031755827
 30
0.0
 11
-47.92089105778182
 21
-218.2910407079045
 31
0.0
  0
LINE
  5
B8
  8
DIMNSIONS
  6
CONTINUOUS
 62
     7
 10
-109.9695471277557
 20
-380.5292637176204
 30
0.0
 11
-52.0493511135299
 21
-381.9900012499423
 31
0.0
  0
LINE
  5
B9
  8
DIMNSIONS
  6
CONTINUOUS
 62
     7
 10
-57.91771237474854
 20
-218.0389225676617
 30
0.0
 11
-62.04617243049663
 21
-381.7378831096994
 31
0.0
  0
LINE
  5
BA
  8
DIMNSIONS
  6
CONTINUOUS
 62
     7
 10
-57.91771237474854
 20
-218.0389225676617
 30
0.0
 11
-52.90889858646134
 21
-238.1281774093554
 31
0.0
  0
LINE
  5
BB
  8
DIMNSIONS
  6
CONTINUOUS
 62
     7
 10
-57.91771237474854
 20
-218.0389225676617
 30
0.0
 11
-63.62457981211292
 21
-237.9411344978116
 31
0.0
  0
LINE
  5
BC
  8
DIMNSIONS
  6
CONTINUOUS
 62
     7
 10
-62.04617243049663
 20
-381.7378831096994
 30
0.0
 11
-66.70361751166374
 21
-361.5642721048207
 31
0.0
  0
LINE
  5
BD
  8
DIMNSIONS
  6
CONTINUOUS
 62
     7
 10
-62.04617243049663
 20
-381.7378831096994
 30
0.0
 11
-55.99283268507886
 21
-361.9383009528256
 31
0.0
  0
TEXT
  5
BE
  8
DIMNSIONS
 62
     7
 10
-69.9546396134625
 20
-326.1036393773735
 30
0.0
 40
27.14735243055556
  1
164
 50
88.55531638625256
 41
0.7
 11
-97.09336276116115
 21
-325.4192053766426
 31
0.0
 73
     3
  0
LINE
  5
BF
  8
DIMNSIONS
  6
CONTINUOUS
 62
     7
 10
-313.0273054913833
 20
-206.9286153356847
 30
0.0
 11
-47.80302582721822
 21
-213.6175267422227
 31
0.0
  0
LINE
  5
C0
  8
DIMNSIONS
  6
CONTINUOUS
 62
     7
 10
-105.8410870720076
 20
-216.8303031755828
 30
0.0
 11
-47.92089105778172
 21
-218.2910407079047
 31
0.0
  0
LINE
  5
C1
  8
DIMNSIONS
  6
CONTINUOUS
 62
     7
 10
-57.91771237474845
 20
-218.0389225676618
 30
0.0
 11
-57.79984714418492
 21
-213.3654086019799
 31
0.0
  0
LINE
  5
C2
  8
DIMNSIONS
  6
CONTINUOUS
 62
     7
 10
-57.79984714418492
 20
-213.3654086019799
 30
0.0
 11
-55.9315271806872
 21
-139.2840242953329
 31
0.0
  0
LINE
  5
C3
  8
DIMNSIONS
  6
CONTINUOUS
 62
     7
 10
-57.79984714418492
 20
-213.3654086019799
 30
0.0
 11
-62.45729222535203
 21
-193.1917975971012
 31
0.0
  0
LINE
  5
C4
  8
DIMNSIONS
  6
CONTINUOUS
 62
     7
 10
-57.79984714418492
 20
-213.3654086019799
 30
0.0
 11
-51.74650739876715
 21
-193.565826445106
 31
0.0
  0
LINE
  5
C5
  8
DIMNSIONS
  6
CONTINUOUS
 62
     7
 10
-57.91771237474845
 20
-218.0389225676618
 30
0.0
 11
-58.80012586559847
 21
-253.0277971770454
 31
0.0
  0
LINE
  5
C6
  8
DIMNSIONS
  6
CONTINUOUS
 62
     7
 10
-57.91771237474845
 20
-218.0389225676618
 30
0.0
 11
-52.90889858646126
 21
-238.1281774093556
 31
0.0
  0
LINE
  5
C7
  8
DIMNSIONS
  6
CONTINUOUS
 62
     7
 10
-57.91771237474845
 20
-218.0389225676618
 30
0.0
 11
-63.62457981211283
 21
-237.9411344978118
 31
0.0
  0
TEXT
  5
C8
  8
DIMNSIONS
 62
     7
 10
-68.46157197000012
 20
-191.901511234354
 30
0.0
 40
27.14735243055558
  1
4.7
 50
88.55531638625257
 41
0.7
 11
-95.60029511769879
 21
-191.2170772336231
 31
0.0
 73
     3
  0
TEXT
  5
C9
  8
DIMNSIONS
 62
     7
 10
-90.06258542164689
 20
-272.6630278440637
 30
0.0
 40
19.00314670138889
  1
※2
 50
88.55531638625256
 41
0.7
 11
-109.0596916250359
 21
-272.1839240435521
 31
0.0
 73
     3
  0
TEXT
  5
CA
  8
DIMNSIONS
 62
     7
 10
-88.56951777818455
 20
-138.4608997010442
 30
0.0
 40
19.00314670138889
  1
※2
 50
88.55531638625256
 41
0.7
 11
-107.5666239815736
 21
-137.9817959005325
 31
0.0
 73
     3
  0
TEXT
  5
CB
  8
DIMNSIONS
 62
     7
 10
-21.2765834101567
 20
-381.5563555724171
 30
0.0
 40
19.00314670138889
  1
※1
 50
88.55531638625256
 41
0.7
 11
-40.27368961354576
 21
-381.0772517719054
 31
0.0
 73
     3
  0
ARC
  5
CC
  8
DATA
  6
CONTINUOUS
 62
     7
 10
-541.8869836795616
 20
-570.7211370772567
 30
0.0
 40
0.9117322799902177
 50
178.5302373050893
 51
1.469771730814443
  0
ARC
  5
CD
  8
DATA
  6
CONTINUOUS
 62
     7
 10
-547.9178381069211
 20
-567.2342902935545
 30
0.0
 40
1.260669420683291
 50
3.876511792814159
 51
88.3704397552071
  0
ARC
  5
CE
  8
DATA
  6
CONTINUOUS
 62
     7
 10
-547.9233598017007
 20
-564.7023548872698
 30
0.0
 40
1.272446414487438
 50
271.8632226864122
 51
353.537039927694
  0
ARC
  5
CF
  8
DATA
  6
CONTINUOUS
 62
     7
 10
-549.1503956628286
 20
-562.2131299849925
 30
0.0
 40
2.528053616089311
 50
9.90876644077543
 51
85.74076330646743
  0
ARC
  5
D0
  8
DATA
  6
CONTINUOUS
 62
     7
 10
-549.532306032379
 20
-570.7606729059819
 30
0.0
 40
0.5840677801505058
 50
286.2506393622358
 51
347.2504482105836
  0
ARC
  5
D1
  8
DATA
  6
CONTINUOUS
 62
     7
 10
-550.1341748497003
 20
-569.3568437161061
 30
0.0
 40
2.108366168245067
 50
269.2468340648687
 51
291.2838879927324
  0
ARC
  5
D2
  8
DATA
  6
CONTINUOUS
 62
     7
 10
-549.1503956628286
 20
-570.1668021870307
 30
0.0
 40
2.528053616089331
 50
274.2592366935327
 51
350.0912335592246
  0
ARC
  5
D3
  8
DATA
  6
CONTINUOUS
 62
     7
 10
-559.887891
 20
-566.1184266749206
 30
0.0
 40
1.23523406242748
 50
89.99999999999473
 51
179.9817840434337
  0
ARC
  5
D4
  8
DATA
  6
CONTINUOUS
 62
     7
 10
-558.2674888778565
 20
-569.3495839117738
 30
0.0
 40
3.352698096815841
 50
216.0192896884699
 51
270.1949839591529
  0
ARC
  5
D5
  8
DATA
  6
CONTINUOUS
 62
     7
 10
-556.2812625607429
 20
-570.6242589972843
 30
0.0
 40
1.515981230229026
 50
332.6324659379216
 51
357.221785123842
  0
ARC
  5
D6
  8
DATA
  6
CONTINUOUS
 62
     7
 10
-557.6467779400706
 20
-569.3493559571788
 30
0.0
 40
3.352915093144008
 50
269.8868447428922
 51
323.9785225631053
  0
ARC
  5
D7
  8
DATA
  6
CONTINUOUS
 62
     7
 10
-558.0818239802757
 20
-570.7258200538307
 30
0.0
 40
0.9070574028691853
 50
178.2267332931558
 51
270.3036407987859
  0
ARC
  5
D8
  8
DATA
  6
CONTINUOUS
 62
     7
 10
-558.072288788776
 20
-570.7257354969978
 30
0.0
 40
0.9071461148135928
 50
269.7021836782816
 51
1.76692882338773
  0
ARC
  5
D9
  8
DATA
  6
CONTINUOUS
 62
     7
 10
-559.6325602907305
 20
-570.6241429336669
 30
0.0
 40
1.516349741475916
 50
182.7819337937438
 51
207.3658175471073
  0
ARC
  5
DA
  8
DATA
  6
CONTINUOUS
 62
     7
 10
-660.5004767410503
 20
-251.7976022898362
 30
0.0
 40
2.99952329686004
 50
89.99089346955672
 51
179.9908905738773
  0
ARC
  5
DB
  8
DATA
  6
CONTINUOUS
 62
     7
 10
-660.5004767410503
 20
-578.6927024345187
 30
0.0
 40
2.99952329686015
 50
180.0091094261271
 51
270.0091065304433
  0
ARC
  5
DC
  8
DATA
  6
CONTINUOUS
 62
     7
 10
-666.7507945684171
 20
-216.3092048833606
 30
0.0
 40
4.999205494767113
 50
89.99089346955803
 51
179.9908905738736
  0
ARC
  5
DD
  8
DATA
  6
CONTINUOUS
 62
     7
 10
-665.4140891368335
 20
-216.3849758635926
 30
0.0
 40
9.99841098953468
 50
89.99089346956129
 51
179.9908905738697
  0
ARC
  5
DE
  8
DATA
  6
CONTINUOUS
 62
     7
 10
-670.4132945684165
 20
-211.3857704319694
 30
0.0
 40
4.99920549476751
 50
89.99089346956323
 51
179.9908905738677
  0
LINE
  5
DF
  8
DATA
  6
CONTINUOUS
 62
     7
 10
600.0
 20
-437.2327529618578
 30
0.0
 11
800.0
 21
-437.2327529618578
 31
0.0
  0
TEXT
  5
E0
  8
DATA
 62
     7
 10
-879.9999999999999
 20
-1189.450887222222
 30
0.0
 40
19.00314670138889
  1
※仕様及び外観は予告なく変更されることがあります。
 41
0.7
 11
-879.9999999999999
 21
-1170.447740520833
 31
0.0
 73
     3
  0
TEXT
  5
E1
  8
DATA
 62
     7
 10
-879.9999999999999
 20
-1214.145331666667
 30
0.0
 40
19.00314670138889
  1
　また、同一商品でも若干の個体差があることがあります。ご了承ください。
 41
0.7
 11
-879.9999999999999
 21
-1195.142184965278
 31
0.0
 73
     3
  0
TEXT
  5
E2
  8
DATA
 62
     7
 10
499.9999999999999
 20
-1084.404765
 30
0.0
 40
24.4326171875
  1
JBL PROFESSIONAL
 41
0.7
 11
499.9999999999999
 21
-1059.9721478125
 31
0.0
 73
     3
  0
TEXT
  5
E3
  8
DATA
 62
     7
 10
474.9999999999999
 20
-1120.444315
 30
0.0
 40
19.00314670138889
  1
2-Wayフルレンジ・スピーカー
 41
0.7
 11
474.9999999999999
 21
-1101.441168298611
 31
0.0
 73
     3
  0
LINE
  5
E4
  8
DATA
  6
CONTINUOUS
 62
     7
 10
557.5
 20
-344.7327529618578
 30
0.0
 11
557.5
 21
-119.7327529618578
 31
0.0
  0
LINE
  5
E5
  8
DATA
  6
CONTINUOUS
 62
     7
 10
842.5
 20
-344.7327529618578
 30
0.0
 11
842.5
 21
-119.7327529618578
 31
0.0
  0
CIRCLE
  5
E6
  8
DATA
  6
CONTINUOUS
 62
     7
 10
810.0
 20
-342.2327529618578
 30
0.0
 40
15.0
  0
LINE
  5
E7
  8
DATA
  6
CONTINUOUS
 62
     7
 10
587.5
 20
-374.7327529618578
 30
0.0
 11
812.5
 21
-374.7327529618578
 31
0.0
  0
CIRCLE
  5
E8
  8
DATA
  6
CONTINUOUS
 62
     7
 10
590.0
 20
-342.2327529618578
 30
0.0
 40
15.0
  0
LINE
  5
E9
  8
DATA
  6
CONTINUOUS
 62
     7
 10
582.5
 20
-342.2327529618578
 30
0.0
 11
597.5
 21
-342.2327529618578
 31
0.0
  0
LINE
  5
EA
  8
DATA
  6
CONTINUOUS
 62
     7
 10
590.0
 20
-349.7327529618578
 30
0.0
 11
590.0
 21
-334.7327529618578
 31
0.0
  0
ARC
  5
EB
  8
DATA
  6
CONTINUOUS
 62
     7
 10
587.5
 20
-344.7327529618578
 30
0.0
 40
30.0
 50
180.0
 51
270.0
  0
CIRCLE
  5
EC
  8
DATA
  6
CONTINUOUS
 62
     7
 10
652.5
 20
-343.4827529618578
 30
0.0
 40
12.5
  0
LINE
  5
ED
  8
DATA
  6
CONTINUOUS
 62
     7
 10
642.5
 20
-343.4827529618578
 30
0.0
 11
662.5
 21
-343.4827529618578
 31
0.0
  0
CIRCLE
  5
EE
  8
DATA
  6
CONTINUOUS
 62
     7
 10
747.5
 20
-343.4827529618578
 30
0.0
 40
12.5
  0
LINE
  5
EF
  8
DATA
  6
CONTINUOUS
 62
     7
 10
737.5
 20
-343.4827529618578
 30
0.0
 11
757.5
 21
-343.4827529618578
 31
0.0
  0
LINE
  5
F0
  8
DATA
  6
CONTINUOUS
 62
     7
 10
747.5
 20
-353.4827529618578
 30
0.0
 11
747.5
 21
-333.4827529618578
 31
0.0
  0
LINE
  5
F1
  8
DATA
  6
CONTINUOUS
 62
     7
 10
802.5
 20
-342.2327529618578
 30
0.0
 11
817.5
 21
-342.2327529618578
 31
0.0
  0
LINE
  5
F2
  8
DATA
  6
CONTINUOUS
 62
     7
 10
810.0
 20
-349.7327529618578
 30
0.0
 11
810.0
 21
-334.7327529618578
 31
0.0
  0
ARC
  5
F3
  8
DATA
  6
CONTINUOUS
 62
     7
 10
812.5
 20
-344.7327529618578
 30
0.0
 40
30.0
 50
270.0
 51
0.0
  0
CIRCLE
  5
F4
  8
DATA
  6
CONTINUOUS
 62
     7
 10
810.0
 20
-122.2327529618578
 30
0.0
 40
15.0
  0
LINE
  5
F5
  8
DATA
  6
CONTINUOUS
 62
     7
 10
587.5
 20
-89.73275296185784
 30
0.0
 11
812.5
 21
-89.73275296185784
 31
0.0
  0
CIRCLE
  5
F6
  8
DATA
  6
CONTINUOUS
 62
     7
 10
590.0
 20
-122.2327529618578
 30
0.0
 40
15.0
  0
LINE
  5
F7
  8
DATA
  6
CONTINUOUS
 62
     7
 10
582.5
 20
-122.2327529618578
 30
0.0
 11
597.5
 21
-122.2327529618578
 31
0.0
  0
LINE
  5
F8
  8
DATA
  6
CONTINUOUS
 62
     7
 10
590.0
 20
-129.7327529618578
 30
0.0
 11
590.0
 21
-114.7327529618578
 31
0.0
  0
LINE
  5
F9
  8
DATA
  6
CONTINUOUS
 62
     7
 10
605.0
 20
-152.2327529618578
 30
0.0
 11
795.0
 21
-152.2327529618578
 31
0.0
  0
LINE
  5
FA
  8
DATA
  6
CONTINUOUS
 62
     7
 10
795.0
 20
-312.2327529618578
 30
0.0
 11
795.0
 21
-152.2327529618578
 31
0.0
  0
LINE
  5
FB
  8
DATA
  6
CONTINUOUS
 62
     7
 10
605.0
 20
-312.2327529618578
 30
0.0
 11
795.0
 21
-312.2327529618578
 31
0.0
  0
LINE
  5
FC
  8
DATA
  6
CONTINUOUS
 62
     7
 10
605.0
 20
-192.2327529618578
 30
0.0
 11
795.0
 21
-192.2327529618578
 31
0.0
  0
ARC
  5
FD
  8
DATA
  6
CONTINUOUS
 62
     7
 10
587.5
 20
-119.7327529618578
 30
0.0
 40
30.0
 50
90.0
 51
180.0
  0
LINE
  5
FE
  8
DATA
  6
CONTINUOUS
 62
     7
 10
605.0
 20
-312.2327529618578
 30
0.0
 11
605.0
 21
-152.2327529618578
 31
0.0
  0
LINE
  5
FF
  8
DATA
  6
CONTINUOUS
 62
     7
 10
718.75
 20
-279.7327529618578
 30
0.0
 11
718.75
 21
-192.2327529618578
 31
0.0
  0
LINE
  5
100
  8
DATA
  6
CONTINUOUS
 62
     7
 10
681.25
 20
-279.7327529618578
 30
0.0
 11
681.25
 21
-192.2327529618578
 31
0.0
  0
LINE
  5
101
  8
DATA
  6
CONTINUOUS
 62
     7
 10
623.75
 20
-279.7327529618578
 30
0.0
 11
623.75
 21
-192.2327529618578
 31
0.0
  0
LINE
  5
102
  8
DATA
  6
CONTINUOUS
 62
     7
 10
776.25
 20
-279.7327529618578
 30
0.0
 11
776.25
 21
-192.2327529618578
 31
0.0
  0
LINE
  5
103
  8
DATA
  6
CONTINUOUS
 62
     7
 10
605.0
 20
-279.7327529618578
 30
0.0
 11
795.0
 21
-279.7327529618578
 31
0.0
  0
TEXT
  5
104
  8
DATA
 62
     7
 10
669.7497499999997
 20
-307.2327529618578
 30
0.0
 40
22.3700810546875
  1
INPUT
 41
0.7
  0
LINE
  5
105
  8
DATA
  6
CONTINUOUS
 62
     7
 10
707.5
 20
-188.4827529618578
 30
0.0
 11
707.5
 21
-155.9827529618578
 31
0.0
  0
LINE
  5
106
  8
DATA
  6
CONTINUOUS
 62
     7
 10
707.5
 20
-155.9827529618578
 30
0.0
 11
787.5
 21
-155.9827529618578
 31
0.0
  0
LINE
  5
107
  8
DATA
  6
CONTINUOUS
 62
     7
 10
787.5
 20
-155.9827529618578
 30
0.0
 11
787.5
 21
-188.4827529618578
 31
0.0
  0
LINE
  5
108
  8
DATA
  6
CONTINUOUS
 62
     7
 10
787.5
 20
-188.4827529618578
 30
0.0
 11
707.5
 21
-188.4827529618578
 31
0.0
  0
LINE
  5
109
  8
DATA
  6
CONTINUOUS
 62
     7
 10
738.75
 20
-183.4827529618578
 30
0.0
 11
738.75
 21
-160.9827529618578
 31
0.0
  0
LINE
  5
10A
  8
DATA
  6
CONTINUOUS
 62
     7
 10
738.75
 20
-160.9827529618578
 30
0.0
 11
756.25
 21
-160.9827529618578
 31
0.0
  0
LINE
  5
10B
  8
DATA
  6
CONTINUOUS
 62
     7
 10
756.25
 20
-160.9827529618578
 30
0.0
 11
756.25
 21
-183.4827529618578
 31
0.0
  0
LINE
  5
10C
  8
DATA
  6
CONTINUOUS
 62
     7
 10
756.25
 20
-183.4827529618578
 30
0.0
 11
738.75
 21
-183.4827529618578
 31
0.0
  0
LINE
  5
10D
  8
DATA
  6
CONTINUOUS
 62
     7
 10
612.5
 20
-188.4827529618578
 30
0.0
 11
612.5
 21
-155.9827529618578
 31
0.0
  0
LINE
  5
10E
  8
DATA
  6
CONTINUOUS
 62
     7
 10
612.5
 20
-155.9827529618578
 30
0.0
 11
692.5
 21
-155.9827529618578
 31
0.0
  0
LINE
  5
10F
  8
DATA
  6
CONTINUOUS
 62
     7
 10
692.5
 20
-155.9827529618578
 30
0.0
 11
692.5
 21
-188.4827529618578
 31
0.0
  0
LINE
  5
110
  8
DATA
  6
CONTINUOUS
 62
     7
 10
692.5
 20
-188.4827529618578
 30
0.0
 11
612.5
 21
-188.4827529618578
 31
0.0
  0
LINE
  5
111
  8
DATA
  6
CONTINUOUS
 62
     7
 10
643.75
 20
-183.4827529618578
 30
0.0
 11
643.75
 21
-160.9827529618578
 31
0.0
  0
LINE
  5
112
  8
DATA
  6
CONTINUOUS
 62
     7
 10
643.75
 20
-160.9827529618578
 30
0.0
 11
661.25
 21
-160.9827529618578
 31
0.0
  0
LINE
  5
113
  8
DATA
  6
CONTINUOUS
 62
     7
 10
661.25
 20
-160.9827529618578
 30
0.0
 11
661.25
 21
-183.4827529618578
 31
0.0
  0
LINE
  5
114
  8
DATA
  6
CONTINUOUS
 62
     7
 10
661.25
 20
-183.4827529618578
 30
0.0
 11
643.75
 21
-183.4827529618578
 31
0.0
  0
LINE
  5
115
  8
DATA
  6
CONTINUOUS
 62
     7
 10
802.5
 20
-122.2327529618578
 30
0.0
 11
817.5
 21
-122.2327529618578
 31
0.0
  0
LINE
  5
116
  8
DATA
  6
CONTINUOUS
 62
     7
 10
810.0
 20
-129.7327529618578
 30
0.0
 11
810.0
 21
-114.7327529618578
 31
0.0
  0
ARC
  5
117
  8
DATA
  6
CONTINUOUS
 62
     7
 10
812.5
 20
-119.7327529618578
 30
0.0
 40
30.0
 50
0.0
 51
90.0
  0
LINE
  5
118
  8
DATA
  6
CONTINUOUS
 62
     7
 10
718.75
 20
-259.7327529618578
 30
0.0
 11
776.25
 21
-259.7327529618578
 31
0.0
  0
LINE
  5
119
  8
DATA
  6
CONTINUOUS
 62
     7
 10
718.75
 20
-252.2327529618578
 30
0.0
 11
776.25
 21
-252.2327529618578
 31
0.0
  0
LINE
  5
11A
  8
DATA
  6
CONTINUOUS
 62
     7
 10
681.25
 20
-259.7327529618578
 30
0.0
 11
623.75
 21
-259.7327529618578
 31
0.0
  0
LINE
  5
11B
  8
DATA
  6
CONTINUOUS
 62
     7
 10
681.25
 20
-252.2327529618578
 30
0.0
 11
623.75
 21
-252.2327529618578
 31
0.0
  0
TEXT
  5
11C
  8
DATA
 62
     7
 10
646.1577510127314
 20
-425.8064291771356
 30
0.0
 40
27.14735243055558
  1
端子拡大図
 41
0.7
 72
     1
 11
700.0
 21
-412.2327529618578
 31
0.0
 73
     2
  0
LINE
  5
11D
  8
DATA
  6
CONTINUOUS
 62
     7
 10
-132.2428290473811
 20
-594.4076071886337
 30
0.0
 11
-312.7962803367238
 21
-594.4076071886337
 31
0.0
  0
LINE
  5
11E
  8
DATA
  6
CONTINUOUS
 62
     7
 10
-337.1643243792228
 20
-588.8664832464326
 30
0.0
 11
-344.1620993010995
 21
-588.6900005482626
 31
0.0
  0
LINE
  5
11F
  8
DATA
  6
CONTINUOUS
 62
     7
 10
-334.6446395069314
 20
-211.3099958327684
 30
0.0
 11
-327.6468645850547
 21
-211.4864785309384
 31
0.0
  0
LINE
  5
120
  8
DATA
  6
CONTINUOUS
 62
     7
 10
-334.7892872340507
 20
-593.8529472800994
 30
0.0
 11
-325.0234910717434
 21
-206.6260735673931
 31
0.0
  0
ARC
  5
121
  8
DATA
  6
CONTINUOUS
 62
     7
 10
1335.262369308609
 20
-442.2347844476311
 30
0.0
 40
1685.79823113209
 50
172.1267283956741
 51
184.9839043768311
  0
LINE
  5
122
  8
DATA
  6
CONTINUOUS
 62
     7
 10
-303.0304841744165
 20
-207.1807334759274
 30
0.0
 11
-312.7962803367238
 21
-594.4076071886337
 31
0.0
  0
LINE
  5
123
  8
DATA
  6
CONTINUOUS
 62
     7
 10
-304.5300073719616
 20
-207.142915754891
 30
0.0
 11
-314.2958035342689
 21
-594.3697894675972
 31
0.0
  0
LINE
  5
124
  8
DATA
  6
CONTINUOUS
 62
     7
 10
-327.6468645850547
 20
-211.4864785309384
 30
0.0
 11
-337.1643243792228
 21
-588.8664832464326
 31
0.0
  0
LINE
  5
125
  8
DATA
  6
CONTINUOUS
 62
     7
 10
-327.7792266086822
 20
-216.734809722346
 30
0.0
 11
-325.2800212794405
 21
-216.7978392574067
 31
0.0
  0
LINE
  5
126
  8
DATA
  6
CONTINUOUS
 62
     7
 10
-337.0319623555953
 20
-583.6181520550251
 30
0.0
 11
-334.5327570263536
 21
-583.6811815900858
 31
0.0
  0
LINE
  5
127
  8
DATA
  6
CONTINUOUS
 62
     7
 10
-304.6226607885009
 20
-210.8167475888762
 30
0.0
 11
-303.1231375909558
 21
-210.8545653099127
 31
0.0
  0
LINE
  5
128
  8
DATA
  6
CONTINUOUS
 62
     7
 10
-314.2031501177296
 20
-590.6959576336121
 30
0.0
 11
-312.7036269201846
 21
-590.7337753546485
 31
0.0
  0
LINE
  5
129
  8
DATA
  6
CONTINUOUS
 62
     7
 10
-117.7917398465949
 20
-259.5425824200956
 30
0.0
 11
-119.7330495264649
 21
-336.5181065607395
 31
0.0
  0
LINE
  5
12A
  8
DATA
  6
CONTINUOUS
 62
     7
 10
-117.9601926170178
 20
-221.4017023371698
 30
0.0
 11
-127.2444183888978
 21
-589.5336662587551
 31
0.0
  0
LINE
  5
12B
  8
DATA
  6
CONTINUOUS
 62
     7
 10
-119.7330495264649
 20
-336.5181065607395
 30
0.0
 11
-120.862690335282
 21
-336.4896172108921
 31
0.0
  0
LINE
  5
12C
  8
DATA
  6
CONTINUOUS
 62
     7
 10
-118.921380655412
 20
-259.5140930702482
 30
0.0
 11
-117.7917398465949
 21
-259.5425824200956
 31
0.0
  0
LINE
  5
12D
  8
DATA
  6
CONTINUOUS
 62
     7
 10
-334.7892872340507
 20
-593.8529472800994
 30
0.0
 11
-314.2958035342689
 21
-594.3697894675972
 31
0.0
  0
LINE
  5
12E
  8
DATA
  6
CONTINUOUS
 62
     7
 10
-122.7065652756236
 20
-216.2819996227124
 30
0.0
 11
-303.0304841744165
 21
-207.1807334759274
 31
0.0
  0
LINE
  5
12F
  8
DATA
  6
CONTINUOUS
 62
     7
 10
-325.0234910717434
 20
-206.6260735673931
 30
0.0
 11
-304.5300073719616
 21
-207.142915754891
 31
0.0
  0
ARC
  5
130
  8
DATA
  6
CONTINUOUS
 62
     7
 10
-122.9586032755011
 20
-221.2756432670484
 30
0.0
 40
4.999999999999985
 50
358.5553163862527
 51
87.11063277250406
  0
ARC
  5
131
  8
DATA
  6
CONTINUOUS
 62
     7
 10
-132.2428290473812
 20
-589.4076071886336
 30
0.0
 40
5.000000000000114
 50
270.000000000001
 51
358.5553163862514
  0
TEXT
  5
132
  8
DATA
 62
     7
 10
-565.7092679398148
 20
-549.917927723753
 30
0.0
 40
5.429470486111112
  1
CONTROL 5
 41
0.7
 72
     1
 11
-550.0
 21
-547.2031924806975
 31
0.0
 73
     2
  0
LINE
  5
133
  8
DATA
  6
CONTINUOUS
 62
     7
 10
-675.4124999999999
 20
-588.6150243891042
 30
0.0
 11
-675.4124999999999
 21
-211.3849756108958
 31
0.0
  0
LINE
  5
134
  8
DATA
  6
CONTINUOUS
 62
     7
 10
-429.5875000000001
 20
-593.6134349996541
 30
0.0
 11
-670.4124999999999
 21
-593.6134349996541
 31
0.0
  0
LINE
  5
135
  8
DATA
  6
CONTINUOUS
 62
     7
 10
-424.5875000000001
 20
-211.3849756108958
 30
0.0
 11
-424.5875000000001
 21
-588.6150243891042
 31
0.0
  0
LINE
  5
136
  8
DATA
  6
CONTINUOUS
 62
     7
 10
-670.4124999999999
 20
-206.3865650003458
 30
0.0
 11
-429.5875000000001
 21
-206.3865650003458
 31
0.0
  0
LINE
  5
137
  8
DATA
  6
CONTINUOUS
 62
     7
 10
-671.75
 20
-583.6915899377125
 30
0.0
 11
-671.75
 21
-216.3084100622875
 31
0.0
  0
LINE
  5
138
  8
DATA
  6
CONTINUOUS
 62
     7
 10
-433.25
 20
-588.6900005482626
 30
0.0
 11
-666.75
 21
-588.6900005482626
 31
0.0
  0
LINE
  5
139
  8
DATA
  6
CONTINUOUS
 62
     7
 10
-428.25
 20
-216.3084100622874
 30
0.0
 11
-428.25
 21
-583.6915899377125
 31
0.0
  0
LINE
  5
13A
  8
DATA
  6
CONTINUOUS
 62
     7
 10
-666.75
 20
-211.3099994517374
 30
0.0
 11
-433.25
 21
-211.3099994517374
 31
0.0
  0
LINE
  5
13B
  8
DATA
  6
CONTINUOUS
 62
     7
 10
-663.5
 20
-578.6931793271625
 30
0.0
 11
-663.5
 21
-244.7993505424226
 31
0.0
  0
LINE
  5
13C
  8
DATA
  6
CONTINUOUS
 62
     7
 10
-439.5
 20
-581.6922256934924
 30
0.0
 11
-660.5
 21
-581.6922256934924
 31
0.0
  0
LINE
  5
13D
  8
DATA
  6
CONTINUOUS
 62
     7
 10
-436.5
 20
-244.7993505424226
 30
0.0
 11
-436.5
 21
-578.6931793271625
 31
0.0
  0
LINE
  5
13E
  8
DATA
  6
CONTINUOUS
 62
     7
 10
-660.5
 20
-241.8003041760925
 30
0.0
 11
-439.5
 21
-241.8003041760925
 31
0.0
  0
LINE
  5
13F
  8
DATA
  6
CONTINUOUS
 62
     7
 10
-660.5
 20
-248.7980790308625
 30
0.0
 11
-439.5
 21
-248.7980790308625
 31
0.0
  0
LINE
  5
140
  8
DATA
  6
CONTINUOUS
 62
     7
 10
-569.0
 20
-550.7020799080825
 30
0.0
 11
-531.0
 21
-550.7020799080825
 31
0.0
  0
LINE
  5
141
  8
DATA
  6
CONTINUOUS
 62
     7
 10
-560.0198150000001
 20
-564.3197047897694
 30
0.0
 11
-558.0770170000001
 21
-559.6920322922966
 31
0.0
  0
LINE
  5
142
  8
DATA
  6
CONTINUOUS
 62
     7
 10
-560.0198150000001
 20
-564.3197047897694
 30
0.0
 11
-561.9386409999997
 21
-559.6920322922966
 31
0.0
  0
LINE
  5
143
  8
DATA
  6
CONTINUOUS
 62
     7
 10
-545.292895
 20
-572.6878998797266
 30
0.0
 11
-545.292895
 21
-559.6920322922966
 31
0.0
  0
LINE
  5
144
  8
DATA
  6
CONTINUOUS
 62
     7
 10
-542.7984289999999
 20
-559.6920322922966
 30
0.0
 11
-542.7984289999999
 21
-570.697764700858
 31
0.0
  0
LINE
  5
145
  8
DATA
  6
CONTINUOUS
 62
     7
 10
-557.1655740000001
 20
-559.6920322922966
 30
0.0
 11
-557.1655740000001
 21
-570.697764700858
 31
0.0
  0
LINE
  5
146
  8
DATA
  6
CONTINUOUS
 62
     7
 10
-554.7670480000002
 20
-559.6920322922966
 30
0.0
 11
-554.7670480000002
 21
-570.697764700858
 31
0.0
  0
LINE
  5
147
  8
DATA
  6
CONTINUOUS
 62
     7
 10
-553.5198150000001
 20
-559.6920322922966
 30
0.0
 11
-553.5198150000001
 21
-572.6878998797266
 31
0.0
  0
LINE
  5
148
  8
DATA
  6
CONTINUOUS
 62
     7
 10
-551.3371539999998
 20
-560.914878452936
 30
0.0
 11
-551.3371539999998
 21
-565.0869938079989
 31
0.0
  0
LINE
  5
149
  8
DATA
  6
CONTINUOUS
 62
     7
 10
-546.6590000000001
 20
-564.8455825716948
 30
0.0
 11
-546.6590000000001
 21
-561.8020673455271
 31
0.0
  0
LINE
  5
14A
  8
DATA
  6
CONTINUOUS
 62
     7
 10
-548.9626389999999
 20
-561.4903484655749
 30
0.0
 11
-548.9626389999999
 21
-564.5115367912275
 31
0.0
  0
LINE
  5
14B
  8
DATA
  6
CONTINUOUS
 62
     7
 10
-558.9884469999997
 20
-568.611694027459
 30
0.0
 11
-558.9884469999997
 21
-570.6977387091229
 31
0.0
  0
LINE
  5
14C
  8
DATA
  6
CONTINUOUS
 62
     7
 10
-558.9884469999997
 20
-568.611694027459
 30
0.0
 11
-561.1471229999997
 21
-568.611694027459
 31
0.0
  0
LINE
  5
14D
  8
DATA
  6
CONTINUOUS
 62
     7
 10
-561.1471229999997
 20
-568.611694027459
 30
0.0
 11
-561.1471229999997
 21
-570.6977387091229
 31
0.0
  0
LINE
  5
14E
  8
DATA
  6
CONTINUOUS
 62
     7
 10
-538.792895
 20
-572.687886883859
 30
0.0
 11
-545.292895
 21
-572.687886883859
 31
0.0
  0
LINE
  5
14F
  8
DATA
  6
CONTINUOUS
 62
     7
 10
-538.792895
 20
-572.687886883859
 30
0.0
 11
-538.792895
 21
-568.6116810315914
 31
0.0
  0
LINE
  5
150
  8
DATA
  6
CONTINUOUS
 62
     7
 10
-538.792895
 20
-568.611694027459
 30
0.0
 11
-540.975543
 21
-568.611694027459
 31
0.0
  0
LINE
  5
151
  8
DATA
  6
CONTINUOUS
 62
     7
 10
-540.975543
 20
-568.611694027459
 30
0.0
 11
-540.975543
 21
-570.6977387091229
 31
0.0
  0
LINE
  5
152
  8
DATA
  6
CONTINUOUS
 62
     7
 10
-553.5198150000001
 20
-572.687886883859
 30
0.0
 11
-548.9626389999999
 21
-572.6878738879915
 31
0.0
  0
LINE
  5
153
  8
DATA
  6
CONTINUOUS
 62
     7
 10
-551.3371670000001
 20
-571.4650277273522
 30
0.0
 11
-550.161889
 21
-571.4650277273522
 31
0.0
  0
LINE
  5
154
  8
DATA
  6
CONTINUOUS
 62
     7
 10
-551.3371539999998
 20
-571.4650277273522
 30
0.0
 11
-551.3371539999998
 21
-566.3338173443369
 31
0.0
  0
LINE
  5
155
  8
DATA
  6
CONTINUOUS
 62
     7
 10
-551.3371670000001
 20
-566.3338173443369
 30
0.0
 11
-550.161889
 21
-566.3338173443369
 31
0.0
  0
LINE
  5
156
  8
DATA
  6
CONTINUOUS
 62
     7
 10
-548.9626389999999
 20
-570.8895707105808
 30
0.0
 11
-548.9626389999999
 21
-566.9092743611084
 31
0.0
  0
LINE
  5
157
  8
DATA
  6
CONTINUOUS
 62
     7
 10
-546.6600530000001
 20
-570.6018292063276
 30
0.0
 11
-546.6600530000001
 21
-567.1490611139641
 31
0.0
  0
LINE
  5
158
  8
DATA
  6
CONTINUOUS
 62
     7
 10
-551.3371670000001
 20
-565.0869938079989
 30
0.0
 11
-550.161889
 21
-565.0869938079989
 31
0.0
  0
LINE
  5
159
  8
DATA
  6
CONTINUOUS
 62
     7
 10
-557.1655740000001
 20
-559.6920322922966
 30
0.0
 11
-554.7670480000002
 21
-559.6920322922966
 31
0.0
  0
LINE
  5
15A
  8
DATA
  6
CONTINUOUS
 62
     7
 10
-561.9386409999997
 20
-559.6920322922966
 30
0.0
 11
-558.0770170000001
 21
-559.6920322922966
 31
0.0
  0
LINE
  5
15B
  8
DATA
  6
CONTINUOUS
 62
     7
 10
-545.292895
 20
-559.6920322922966
 30
0.0
 11
-542.7984289999999
 21
-559.6920322922966
 31
0.0
  0
LINE
  5
15C
  8
DATA
  6
CONTINUOUS
 62
     7
 10
-553.5198150000001
 20
-559.6920322922966
 30
0.0
 11
-548.9375878334095
 21
-559.6920428108147
 31
0.0
  0
LINE
  5
15D
  8
DATA
  6
CONTINUOUS
 62
     7
 10
-551.3371670000001
 20
-560.9148914488035
 30
0.0
 11
-550.161889
 21
-560.9148914488035
 31
0.0
  0
POLYLINE
  5
15E
  8
DATA
  6
CONTINUOUS
 62
     7
 66
     1
 10
0.0
 20
0.0
 30
0.0
 70
     1
  0
VERTEX
  5
360
  8
DATA
  6
CONTINUOUS
 62
     7
 10
-569.0
 20
-543.7043050533124
 30
0.0
  0
VERTEX
  5
361
  8
DATA
  6
CONTINUOUS
 62
     7
 10
-531.0
 20
-543.7043050533124
 30
0.0
  0
VERTEX
  5
362
  8
DATA
  6
CONTINUOUS
 62
     7
 10
-531.0
 20
-581.6922256934924
 30
0.0
  0
VERTEX
  5
363
  8
DATA
  6
CONTINUOUS
 62
     7
 10
-569.0
 20
-581.6922256934924
 30
0.0
  0
SEQEND
  5
369
  8
DATA
  6
CONTINUOUS
 62
     7
  0
ARC
  5
165
  8
DATA
  6
CONTINUOUS
 62
     7
 10
-433.2492054315829
 20
-216.3092048833606
 30
0.0
 40
4.999205494767031
 50
0.0091094261264048
 51
90.00910653044198
  0
ARC
  5
166
  8
DATA
  6
CONTINUOUS
 62
     7
 10
-434.5859108631665
 20
-216.3849758635926
 30
0.0
 40
9.99841098953463
 50
0.0091094261303131
 51
90.00910653043873
  0
ARC
  5
167
  8
DATA
  6
CONTINUOUS
 62
     7
 10
-429.5867054315835
 20
-211.3857704319694
 30
0.0
 40
4.999205494767486
 50
0.0091094261322673
 51
90.00910653043675
  0
ARC
  5
168
  8
DATA
  6
CONTINUOUS
 62
     7
 10
-666.7507945684171
 20
-583.6907951166395
 30
0.0
 40
4.999205494767031
 50
180.0091094261257
 51
270.009106530442
  0
ARC
  5
169
  8
DATA
  6
CONTINUOUS
 62
     7
 10
-665.4140891368335
 20
-583.6150241364076
 30
0.0
 40
9.99841098953463
 50
180.0091094261297
 51
270.0091065304387
  0
ARC
  5
16A
  8
DATA
  6
CONTINUOUS
 62
     7
 10
-670.4132945684165
 20
-588.6142295680306
 30
0.0
 40
4.999205494767486
 50
180.0091094261336
 51
270.0091065304368
  0
ARC
  5
16B
  8
DATA
  6
CONTINUOUS
 62
     7
 10
-433.2492054315829
 20
-583.6907951166395
 30
0.0
 40
4.999205494767113
 50
269.990893469558
 51
359.9908905738743
  0
ARC
  5
16C
  8
DATA
  6
CONTINUOUS
 62
     7
 10
-434.5859108631665
 20
-583.6150241364076
 30
0.0
 40
9.99841098953468
 50
269.9908934695613
 51
359.9908905738704
  0
ARC
  5
16D
  8
DATA
  6
CONTINUOUS
 62
     7
 10
-429.5867054315835
 20
-588.6142295680306
 30
0.0
 40
4.999205494767567
 50
269.9908934695632
 51
359.9908905738664
  0
ARC
  5
16E
  8
DATA
  6
CONTINUOUS
 62
     7
 10
-439.4995232589497
 20
-578.6927024345187
 30
0.0
 40
2.999523296860154
 50
269.9908934695567
 51
359.9908905738729
  0
ARC
  5
16F
  8
DATA
  6
CONTINUOUS
 62
     7
 10
-660.5004767410503
 20
-244.7998274350666
 30
0.0
 40
2.999523296860154
 50
89.99089346955672
 51
179.990890573873
  0
ARC
  5
170
  8
DATA
  6
CONTINUOUS
 62
     7
 10
-439.4995232589497
 20
-244.7998274350666
 30
0.0
 40
2.99952329686015
 50
0.0091094261270565
 51
90.00910653044326
  0
ARC
  5
171
  8
DATA
  6
CONTINUOUS
 62
     7
 10
-439.4995232589497
 20
-251.7976022898362
 30
0.0
 40
2.99952329686015
 50
0.0091094261227132
 51
90.0091065304433
  0
LINE
  5
172
  8
DATA
  6
CONTINUOUS
 62
     7
 10
-558.2674888778565
 20
-572.7022625582301
 30
0.0
 11
-557.6467779400706
 21
-572.702264532607
 31
0.0
  0
ARC
  5
173
  8
DATA
  6
CONTINUOUS
 62
     7
 10
-559.887891
 20
-566.1184266749206
 30
0.0
 40
1.23523406242744
 50
0.0182159565663482
 51
90.00000000000527
  0
ARC
  5
174
  8
DATA
  6
CONTINUOUS
 62
     7
 10
-559.887891
 20
-566.1184266749206
 30
0.0
 40
1.23523406242744
 50
180.0182159565663
 51
270.0000000000053
  0
ARC
  5
175
  8
DATA
  6
CONTINUOUS
 62
     7
 10
-559.887891
 20
-566.1184266749206
 30
0.0
 40
1.23523406242748
 50
269.9999999999947
 51
359.9817840434337
  0
ARC
  5
176
  8
DATA
  6
CONTINUOUS
 62
     7
 10
-549.532306032379
 20
-567.0381721657072
 30
0.0
 40
0.5840677801506013
 50
12.74955178941648
 51
73.74936063776414
  0
ARC
  5
177
  8
DATA
  6
CONTINUOUS
 62
     7
 10
-550.1341748497003
 20
-568.442001355583
 30
0.0
 40
2.108366168245071
 50
68.71611200726763
 51
90.75316593513135
  0
ARC
  5
178
  8
DATA
  6
CONTINUOUS
 62
     7
 10
-549.532306032379
 20
-564.3826389866285
 30
0.0
 40
0.5840677801505058
 50
286.2506393622358
 51
347.2504482105836
  0
ARC
  5
179
  8
DATA
  6
CONTINUOUS
 62
     7
 10
-550.1341748497003
 20
-562.9788097967528
 30
0.0
 40
2.108366168245067
 50
269.2468340648687
 51
291.2838879927324
  0
ARC
  5
17A
  8
DATA
  6
CONTINUOUS
 62
     7
 10
-549.532306032379
 20
-561.6192462701738
 30
0.0
 40
0.5840677801506013
 50
12.74955178941648
 51
73.74936063776414
  0
ARC
  5
17B
  8
DATA
  6
CONTINUOUS
 62
     7
 10
-550.1341748497003
 20
-563.0230754600495
 30
0.0
 40
2.108366168245071
 50
68.71611200726763
 51
90.75316593513135
  0
LINE
  5
17C
  8
DATA
  6
CONTINUOUS
 62
     7
 10
-675.4124999999999
 20
-126.6477313292802
 30
0.0
 11
-675.4124999999999
 21
-106.3315129099045
 31
0.0
  0
LINE
  5
17D
  8
DATA
  6
CONTINUOUS
 62
     7
 10
-424.5875000000001
 20
-106.3315129099045
 30
0.0
 11
-424.5875000000001
 21
-126.6477313292802
 31
0.0
  0
LINE
  5
17E
  8
DATA
  6
CONTINUOUS
 62
     7
 10
-675.4124999999999
 20
-106.1542476294985
 30
0.0
 11
-424.5875000000001
 21
-106.1542476294985
 31
0.0
  0
LINE
  5
17F
  8
DATA
  6
CONTINUOUS
 62
     7
 10
-675.4124999999999
 20
-104.6547229086506
 30
0.0
 11
-675.4124999999999
 21
-86.17236662135053
 31
0.0
  0
LINE
  5
180
  8
DATA
  6
CONTINUOUS
 62
     7
 10
-424.5875000000001
 20
-86.17236662135053
 30
0.0
 11
-424.5875000000001
 21
-104.6547229086506
 31
0.0
  0
LINE
  5
181
  8
DATA
  6
CONTINUOUS
 62
     7
 10
-649.0
 20
-27.22863575915051
 30
0.0
 11
-649.0
 21
77.54134823269547
 31
0.0
  0
LINE
  5
182
  8
DATA
  6
CONTINUOUS
 62
     7
 10
-649.0
 20
-27.22863575915051
 30
0.0
 11
-675.4124999999999
 21
-86.17236662135053
 31
0.0
  0
LINE
  5
183
  8
DATA
  6
CONTINUOUS
 62
     7
 10
-646.0
 20
80.53848709009549
 30
0.0
 11
-454.0
 21
80.53848709009549
 31
0.0
  0
LINE
  5
184
  8
DATA
  6
CONTINUOUS
 62
     7
 10
-675.4124999999999
 20
-104.6547229086506
 30
0.0
 11
-424.5875000000001
 21
-104.6547229086506
 31
0.0
  0
LINE
  5
185
  8
DATA
  6
CONTINUOUS
 62
     7
 10
-451.0
 20
-27.22863575915051
 30
0.0
 11
-451.0
 21
77.54134823269547
 31
0.0
  0
LINE
  5
186
  8
DATA
  6
CONTINUOUS
 62
     7
 10
-451.0
 20
-27.22863575915051
 30
0.0
 11
-424.5875000000001
 21
-86.17236662135053
 31
0.0
  0
LINE
  5
187
  8
DATA
  6
CONTINUOUS
 62
     7
 10
-605.5
 20
-40.21623747455055
 30
0.0
 11
-494.5
 21
-40.21623747455055
 31
0.0
  0
LINE
  5
188
  8
DATA
  6
CONTINUOUS
 62
     7
 10
-605.5
 20
80.53848709009549
 30
0.0
 11
-605.5
 21
-40.21623747455055
 31
0.0
  0
LINE
  5
189
  8
DATA
  6
CONTINUOUS
 62
     7
 10
-494.5
 20
80.53848709009549
 30
0.0
 11
-494.5
 21
-40.21623747455055
 31
0.0
  0
LINE
  5
18A
  8
DATA
  6
CONTINUOUS
 62
     7
 10
-590.6499999999999
 20
80.53848709009549
 30
0.0
 11
-590.6499999999999
 21
-20.01552157567448
 31
0.0
  0
LINE
  5
18B
  8
DATA
  6
CONTINUOUS
 62
     7
 10
-593.3499999999999
 20
80.53848709009549
 30
0.0
 11
-593.3499999999999
 21
-20.01552157567448
 31
0.0
  0
LINE
  5
18C
  8
DATA
  6
CONTINUOUS
 62
     7
 10
-576.6499999999999
 20
80.53848709009549
 30
0.0
 11
-576.6499999999999
 21
-20.01552157567448
 31
0.0
  0
LINE
  5
18D
  8
DATA
  6
CONTINUOUS
 62
     7
 10
-579.3499999999999
 20
80.53848709009549
 30
0.0
 11
-579.3499999999999
 21
-20.01552157567448
 31
0.0
  0
LINE
  5
18E
  8
DATA
  6
CONTINUOUS
 62
     7
 10
-562.6499999999999
 20
80.53848709009549
 30
0.0
 11
-562.6499999999999
 21
-20.01552157567448
 31
0.0
  0
LINE
  5
18F
  8
DATA
  6
CONTINUOUS
 62
     7
 10
-565.3499999999999
 20
80.53848709009549
 30
0.0
 11
-565.3499999999999
 21
-20.01552157567448
 31
0.0
  0
LINE
  5
190
  8
DATA
  6
CONTINUOUS
 62
     7
 10
-548.6499999999999
 20
80.53848709009549
 30
0.0
 11
-548.6499999999999
 21
-20.01552157567448
 31
0.0
  0
LINE
  5
191
  8
DATA
  6
CONTINUOUS
 62
     7
 10
-551.3499999999999
 20
80.53848709009549
 30
0.0
 11
-551.3499999999999
 21
-20.01552157567448
 31
0.0
  0
LINE
  5
192
  8
DATA
  6
CONTINUOUS
 62
     7
 10
-534.6499999999999
 20
80.53848709009549
 30
0.0
 11
-534.6499999999999
 21
-20.01552157567448
 31
0.0
  0
LINE
  5
193
  8
DATA
  6
CONTINUOUS
 62
     7
 10
-537.3499999999999
 20
80.53848709009549
 30
0.0
 11
-537.3499999999999
 21
-20.01552157567448
 31
0.0
  0
LINE
  5
194
  8
DATA
  6
CONTINUOUS
 62
     7
 10
-520.6499999999999
 20
80.53848709009549
 30
0.0
 11
-520.6499999999999
 21
-20.01552157567448
 31
0.0
  0
LINE
  5
195
  8
DATA
  6
CONTINUOUS
 62
     7
 10
-523.3499999999999
 20
80.53848709009549
 30
0.0
 11
-523.3499999999999
 21
-20.01552157567448
 31
0.0
  0
LINE
  5
196
  8
DATA
  6
CONTINUOUS
 62
     7
 10
-506.6499999999999
 20
80.53848709009549
 30
0.0
 11
-506.6499999999999
 21
-20.01552157567448
 31
0.0
  0
LINE
  5
197
  8
DATA
  6
CONTINUOUS
 62
     7
 10
-509.3499999999999
 20
80.53848709009549
 30
0.0
 11
-509.3499999999999
 21
-20.01552157567448
 31
0.0
  0
LINE
  5
198
  8
DATA
  6
CONTINUOUS
 62
     7
 10
-671.5
 20
-106.1542476294985
 30
0.0
 11
-671.5
 21
-104.6547229086506
 31
0.0
  0
LINE
  5
199
  8
DATA
  6
CONTINUOUS
 62
     7
 10
-428.5
 20
-106.1542476294985
 30
0.0
 11
-428.5
 21
-104.6547229086506
 31
0.0
  0
ARC
  5
19A
  8
DATA
  6
CONTINUOUS
 62
     7
 10
-646.0014298891219
 20
77.53991697856631
 30
0.0
 40
2.998570452455469
 50
89.97267810903143
 51
179.9726520268823
  0
ARC
  5
19B
  8
DATA
  6
CONTINUOUS
 62
     7
 10
-453.9985701108781
 20
77.53991697856631
 30
0.0
 40
2.99857045245558
 50
0.0273479731177011
 51
90.02732189096858
  0
ARC
  5
19C
  8
DATA
  6
CONTINUOUS
 62
     7
 10
-592.0
 20
-20.01423344695809
 30
0.0
 40
1.350000614546511
 50
180.0546698640896
 51
359.9453301359104
  0
ARC
  5
19D
  8
DATA
  6
CONTINUOUS
 62
     7
 10
-578.0
 20
-20.01423344695809
 30
0.0
 40
1.350000614546511
 50
180.0546698640896
 51
359.9453301359104
  0
ARC
  5
19E
  8
DATA
  6
CONTINUOUS
 62
     7
 10
-564.0000000000002
 20
-20.01423344695809
 30
0.0
 40
1.350000614546511
 50
180.0546698640896
 51
359.9453301359104
  0
ARC
  5
19F
  8
DATA
  6
CONTINUOUS
 62
     7
 10
-550.0000000000002
 20
-20.01423344695809
 30
0.0
 40
1.350000614546511
 50
180.0546698640896
 51
359.9453301359104
  0
ARC
  5
1A0
  8
DATA
  6
CONTINUOUS
 62
     7
 10
-535.9999999999998
 20
-20.01423344695809
 30
0.0
 40
1.350000614546511
 50
180.0546698640896
 51
359.9453301359104
  0
ARC
  5
1A1
  8
DATA
  6
CONTINUOUS
 62
     7
 10
-522.0
 20
-20.01423344695809
 30
0.0
 40
1.350000614546511
 50
180.0546698640896
 51
359.9453301359104
  0
ARC
  5
1A2
  8
DATA
  6
CONTINUOUS
 62
     7
 10
-508.0
 20
-20.01423344695809
 30
0.0
 40
1.350000614546511
 50
180.0546698640896
 51
359.9453301359104
  0
LINE
  5
1A3
  8
DATA
  6
CONTINUOUS
 62
     7
 10
-675.4124999999999
 20
-126.6477313292802
 30
0.0
 11
-424.5875000000001
 21
-126.6477313292802
 31
0.0
  0
LINE
  5
1A4
  8
DATA
  6
CONTINUOUS
 62
     7
 10
-669.5
 20
-126.6477313292802
 30
0.0
 11
-669.5
 21
-129.2711048425915
 31
0.0
  0
LINE
  5
1A5
  8
DATA
  6
CONTINUOUS
 62
     7
 10
-430.5
 20
-126.6477313292802
 30
0.0
 11
-430.5
 21
-129.2711048425915
 31
0.0
  0
LINE
  5
1A6
  8
DATA
  6
CONTINUOUS
 62
     7
 10
-428.25
 20
-152.1601020810181
 30
0.0
 11
-671.75
 21
-152.1601020810181
 31
0.0
  0
LINE
  5
1A7
  8
DATA
  6
CONTINUOUS
 62
     7
 10
-671.75
 20
-129.2711048425915
 30
0.0
 11
-671.75
 21
-152.1601020810181
 31
0.0
  0
LINE
  5
1A8
  8
DATA
  6
CONTINUOUS
 62
     7
 10
-428.25
 20
-129.2711048425915
 30
0.0
 11
-428.25
 21
-152.1601020810181
 31
0.0
  0
LINE
  5
1A9
  8
DATA
  6
CONTINUOUS
 62
     7
 10
-671.75
 20
-129.2711048425915
 30
0.0
 11
-428.25
 21
-129.2711048425915
 31
0.0
  0
LINE
  5
1AA
  8
DATA
  6
CONTINUOUS
 62
     7
 10
-671.75
 20
-136.2688797644682
 30
0.0
 11
-428.25
 21
-136.2688797644682
 31
0.0
  0
TEXT
  5
1AB
  8
DATA
 62
     7
 10
143.1762284163183
 20
-270.334053470609
 30
0.0
 40
8.144205729166666
  1
CONTROL
 41
0.7
 11
143.1762284163183
 21
-266.2619506060257
 31
0.0
 73
     2
  0
TEXT
  5
1AC
  8
DATA
 62
     7
 10
200.8845617496518
 20
-270.334053470609
 30
0.0
 40
8.144205729166666
  1
5
 41
0.7
 11
200.8845617496518
 21
-266.2619506060257
 31
0.0
 73
     2
  0
TEXT
  5
1AD
  8
DATA
 62
     7
 10
168.9499500000002
 20
-501.4371698324037
 30
0.0
 40
4.4740162109375
  1
INPUT
 41
0.7
  0
POLYLINE
  5
1AE
  8
DATA
  6
CONTINUOUS
 62
     7
 66
     1
 10
0.0
 20
0.0
 30
0.0
 70
     1
  0
VERTEX
  5
364
  8
DATA
  6
CONTINUOUS
 62
     7
 10
172.0
 20
-535.9262030451987
 30
0.0
  0
VERTEX
  5
365
  8
DATA
  6
CONTINUOUS
 62
     7
 10
178.0
 20
-535.9262030451987
 30
0.0
  0
VERTEX
  5
366
  8
DATA
  6
CONTINUOUS
 62
     7
 10
178.0
 20
-556.4196865484537
 30
0.0
  0
VERTEX
  5
367
  8
DATA
  6
CONTINUOUS
 62
     7
 10
172.0
 20
-556.4196865484537
 30
0.0
  0
SEQEND
  5
36A
  8
DATA
  6
CONTINUOUS
 62
     7
  0
LINE
  5
1B5
  8
DATA
  6
CONTINUOUS
 62
     7
 10
76.0
 20
-216.5277650310543
 30
0.0
 11
274.0
 21
-216.5277650310543
 31
0.0
  0
LINE
  5
1B6
  8
DATA
  6
CONTINUOUS
 62
     7
 10
119.5
 20
-223.0256988247693
 30
0.0
 11
131.6500000000001
 21
-223.0256988247693
 31
0.0
  0
LINE
  5
1B7
  8
DATA
  6
CONTINUOUS
 62
     7
 10
134.3499999999999
 20
-223.0256988247693
 30
0.0
 11
145.6500000000001
 21
-223.0256988247693
 31
0.0
  0
LINE
  5
1B8
  8
DATA
  6
CONTINUOUS
 62
     7
 10
148.3499999999999
 20
-223.0256988247693
 30
0.0
 11
159.6500000000001
 21
-223.0256988247693
 31
0.0
  0
LINE
  5
1B9
  8
DATA
  6
CONTINUOUS
 62
     7
 10
176.3499999999999
 20
-223.0256988247693
 30
0.0
 11
187.6500000000001
 21
-223.0256988247693
 31
0.0
  0
LINE
  5
1BA
  8
DATA
  6
CONTINUOUS
 62
     7
 10
204.3499999999999
 20
-223.0256988247693
 30
0.0
 11
215.6500000000001
 21
-223.0256988247693
 31
0.0
  0
LINE
  5
1BB
  8
DATA
  6
CONTINUOUS
 62
     7
 10
218.3499999999999
 20
-223.0256988247693
 30
0.0
 11
230.5
 21
-223.0256988247693
 31
0.0
  0
LINE
  5
1BC
  8
DATA
  6
CONTINUOUS
 62
     7
 10
230.5
 20
-223.0256988247693
 30
0.0
 11
230.5
 21
-216.5277650310543
 31
0.0
  0
LINE
  5
1BD
  8
DATA
  6
CONTINUOUS
 62
     7
 10
119.5
 20
-223.0256988247693
 30
0.0
 11
119.5
 21
-216.5277650310543
 31
0.0
  0
LINE
  5
1BE
  8
DATA
  6
CONTINUOUS
 62
     7
 10
131.6500000000001
 20
-228.5239504963744
 30
0.0
 11
131.6500000000001
 21
-220.735344292364
 31
0.0
  0
LINE
  5
1BF
  8
DATA
  6
CONTINUOUS
 62
     7
 10
134.3499999999999
 20
-228.5239504963744
 30
0.0
 11
134.3499999999999
 21
-220.735344292364
 31
0.0
  0
LINE
  5
1C0
  8
DATA
  6
CONTINUOUS
 62
     7
 10
131.6500000000001
 20
-224.6251902201454
 30
0.0
 11
134.3499999999999
 21
-224.6251902201454
 31
0.0
  0
LINE
  5
1C1
  8
DATA
  6
CONTINUOUS
 62
     7
 10
131.6500000000001
 20
-228.5239504963744
 30
0.0
 11
134.3499999999999
 21
-228.5239504963744
 31
0.0
  0
LINE
  5
1C2
  8
DATA
  6
CONTINUOUS
 62
     7
 10
145.6500000000001
 20
-228.5239504963744
 30
0.0
 11
145.6500000000001
 21
-220.735344292364
 31
0.0
  0
LINE
  5
1C3
  8
DATA
  6
CONTINUOUS
 62
     7
 10
148.3499999999999
 20
-228.5239504963744
 30
0.0
 11
148.3499999999999
 21
-220.735344292364
 31
0.0
  0
LINE
  5
1C4
  8
DATA
  6
CONTINUOUS
 62
     7
 10
145.6500000000001
 20
-224.6251902201454
 30
0.0
 11
148.3499999999999
 21
-224.6251902201454
 31
0.0
  0
LINE
  5
1C5
  8
DATA
  6
CONTINUOUS
 62
     7
 10
145.6500000000001
 20
-228.5239504963744
 30
0.0
 11
148.3499999999999
 21
-228.5239504963744
 31
0.0
  0
LINE
  5
1C6
  8
DATA
  6
CONTINUOUS
 62
     7
 10
162.3499999999999
 20
-223.0256988247693
 30
0.0
 11
173.6500000000001
 21
-223.0256988247693
 31
0.0
  0
LINE
  5
1C7
  8
DATA
  6
CONTINUOUS
 62
     7
 10
159.6500000000001
 20
-228.5239504963744
 30
0.0
 11
159.6500000000001
 21
-220.735344292364
 31
0.0
  0
LINE
  5
1C8
  8
DATA
  6
CONTINUOUS
 62
     7
 10
162.3499999999999
 20
-228.5239504963744
 30
0.0
 11
162.3499999999999
 21
-220.735344292364
 31
0.0
  0
LINE
  5
1C9
  8
DATA
  6
CONTINUOUS
 62
     7
 10
159.6500000000001
 20
-224.6251902201454
 30
0.0
 11
162.3499999999999
 21
-224.6251902201454
 31
0.0
  0
LINE
  5
1CA
  8
DATA
  6
CONTINUOUS
 62
     7
 10
159.6500000000001
 20
-228.5239504963744
 30
0.0
 11
162.3499999999999
 21
-228.5239504963744
 31
0.0
  0
LINE
  5
1CB
  8
DATA
  6
CONTINUOUS
 62
     7
 10
173.6500000000001
 20
-228.5239504963744
 30
0.0
 11
173.6500000000001
 21
-220.735344292364
 31
0.0
  0
LINE
  5
1CC
  8
DATA
  6
CONTINUOUS
 62
     7
 10
176.3499999999999
 20
-228.5239504963744
 30
0.0
 11
176.3499999999999
 21
-220.735344292364
 31
0.0
  0
LINE
  5
1CD
  8
DATA
  6
CONTINUOUS
 62
     7
 10
173.6500000000001
 20
-224.6251902201454
 30
0.0
 11
176.3499999999999
 21
-224.6251902201454
 31
0.0
  0
LINE
  5
1CE
  8
DATA
  6
CONTINUOUS
 62
     7
 10
173.6500000000001
 20
-228.5239504963744
 30
0.0
 11
176.3499999999999
 21
-228.5239504963744
 31
0.0
  0
LINE
  5
1CF
  8
DATA
  6
CONTINUOUS
 62
     7
 10
190.3499999999999
 20
-223.0256988247693
 30
0.0
 11
201.6500000000001
 21
-223.0256988247693
 31
0.0
  0
LINE
  5
1D0
  8
DATA
  6
CONTINUOUS
 62
     7
 10
187.6500000000001
 20
-228.5239504963744
 30
0.0
 11
187.6500000000001
 21
-220.735344292364
 31
0.0
  0
LINE
  5
1D1
  8
DATA
  6
CONTINUOUS
 62
     7
 10
190.3499999999999
 20
-228.5239504963744
 30
0.0
 11
190.3499999999999
 21
-220.735344292364
 31
0.0
  0
LINE
  5
1D2
  8
DATA
  6
CONTINUOUS
 62
     7
 10
187.6500000000001
 20
-224.6251902201454
 30
0.0
 11
190.3499999999999
 21
-224.6251902201454
 31
0.0
  0
LINE
  5
1D3
  8
DATA
  6
CONTINUOUS
 62
     7
 10
187.6500000000001
 20
-228.5239504963744
 30
0.0
 11
190.3499999999999
 21
-228.5239504963744
 31
0.0
  0
LINE
  5
1D4
  8
DATA
  6
CONTINUOUS
 62
     7
 10
201.6500000000001
 20
-228.5239504963744
 30
0.0
 11
201.6500000000001
 21
-220.735344292364
 31
0.0
  0
LINE
  5
1D5
  8
DATA
  6
CONTINUOUS
 62
     7
 10
204.3499999999999
 20
-228.5239504963744
 30
0.0
 11
204.3499999999999
 21
-220.735344292364
 31
0.0
  0
LINE
  5
1D6
  8
DATA
  6
CONTINUOUS
 62
     7
 10
201.6500000000001
 20
-224.6251902201454
 30
0.0
 11
204.3499999999999
 21
-224.6251902201454
 31
0.0
  0
LINE
  5
1D7
  8
DATA
  6
CONTINUOUS
 62
     7
 10
201.6500000000001
 20
-228.5239504963744
 30
0.0
 11
204.3499999999999
 21
-228.5239504963744
 31
0.0
  0
LINE
  5
1D8
  8
DATA
  6
CONTINUOUS
 62
     7
 10
215.6500000000001
 20
-228.5239504963744
 30
0.0
 11
215.6500000000001
 21
-220.735344292364
 31
0.0
  0
LINE
  5
1D9
  8
DATA
  6
CONTINUOUS
 62
     7
 10
218.3499999999999
 20
-228.5239504963744
 30
0.0
 11
218.3499999999999
 21
-220.735344292364
 31
0.0
  0
LINE
  5
1DA
  8
DATA
  6
CONTINUOUS
 62
     7
 10
215.6500000000001
 20
-224.6251902201454
 30
0.0
 11
218.3499999999999
 21
-224.6251902201454
 31
0.0
  0
LINE
  5
1DB
  8
DATA
  6
CONTINUOUS
 62
     7
 10
215.6500000000001
 20
-228.5239504963744
 30
0.0
 11
218.3499999999999
 21
-228.5239504963744
 31
0.0
  0
LINE
  5
1DC
  8
DATA
  6
CONTINUOUS
 62
     7
 10
119.5
 20
-220.2803337928039
 30
0.0
 11
230.5
 21
-220.2803337928039
 31
0.0
  0
LINE
  5
1DD
  8
DATA
  6
CONTINUOUS
 62
     7
 10
119.5
 20
-217.5274471531644
 30
0.0
 11
230.5
 21
-217.5274471531644
 31
0.0
  0
LINE
  5
1DE
  8
DATA
  6
CONTINUOUS
 62
     7
 10
178.8499999999999
 20
-217.5274471531644
 30
0.0
 11
178.8499999999999
 21
-220.2803337928039
 31
0.0
  0
LINE
  5
1DF
  8
DATA
  6
CONTINUOUS
 62
     7
 10
171.1500000000001
 20
-217.5274471531644
 30
0.0
 11
171.1500000000001
 21
-220.2803337928039
 31
0.0
  0
LINE
  5
1E0
  8
DATA
  6
CONTINUOUS
 62
     7
 10
119.5
 20
-587.9096733949187
 30
0.0
 11
131.6500000000001
 21
-587.9096733949187
 31
0.0
  0
LINE
  5
1E1
  8
DATA
  6
CONTINUOUS
 62
     7
 10
134.3499999999999
 20
-587.9096733949187
 30
0.0
 11
145.6500000000001
 21
-587.9096733949187
 31
0.0
  0
LINE
  5
1E2
  8
DATA
  6
CONTINUOUS
 62
     7
 10
148.3499999999999
 20
-587.9096733949187
 30
0.0
 11
159.6500000000001
 21
-587.9096733949187
 31
0.0
  0
LINE
  5
1E3
  8
DATA
  6
CONTINUOUS
 62
     7
 10
176.3499999999999
 20
-587.9096733949187
 30
0.0
 11
187.6500000000001
 21
-587.9096733949187
 31
0.0
  0
LINE
  5
1E4
  8
DATA
  6
CONTINUOUS
 62
     7
 10
204.3499999999999
 20
-587.9096733949187
 30
0.0
 11
215.6500000000001
 21
-587.9096733949187
 31
0.0
  0
LINE
  5
1E5
  8
DATA
  6
CONTINUOUS
 62
     7
 10
218.3499999999999
 20
-587.9096733949187
 30
0.0
 11
230.5
 21
-587.9096733949187
 31
0.0
  0
LINE
  5
1E6
  8
DATA
  6
CONTINUOUS
 62
     7
 10
230.5
 20
-587.9096733949187
 30
0.0
 11
230.5
 21
-594.4076071886337
 31
0.0
  0
LINE
  5
1E7
  8
DATA
  6
CONTINUOUS
 62
     7
 10
119.5
 20
-587.9096733949187
 30
0.0
 11
119.5
 21
-594.4076071886337
 31
0.0
  0
LINE
  5
1E8
  8
DATA
  6
CONTINUOUS
 62
     7
 10
131.6500000000001
 20
-582.4114217233137
 30
0.0
 11
131.6500000000001
 21
-590.2000279273241
 31
0.0
  0
LINE
  5
1E9
  8
DATA
  6
CONTINUOUS
 62
     7
 10
134.3499999999999
 20
-582.4114217233137
 30
0.0
 11
134.3499999999999
 21
-590.2000279273241
 31
0.0
  0
LINE
  5
1EA
  8
DATA
  6
CONTINUOUS
 62
     7
 10
131.6500000000001
 20
-586.3101819995426
 30
0.0
 11
134.3499999999999
 21
-586.3101819995426
 31
0.0
  0
LINE
  5
1EB
  8
DATA
  6
CONTINUOUS
 62
     7
 10
131.6500000000001
 20
-582.4114217233137
 30
0.0
 11
134.3499999999999
 21
-582.4114217233137
 31
0.0
  0
LINE
  5
1EC
  8
DATA
  6
CONTINUOUS
 62
     7
 10
145.6500000000001
 20
-582.4114217233137
 30
0.0
 11
145.6500000000001
 21
-590.2000279273241
 31
0.0
  0
LINE
  5
1ED
  8
DATA
  6
CONTINUOUS
 62
     7
 10
148.3499999999999
 20
-582.4114217233137
 30
0.0
 11
148.3499999999999
 21
-590.2000279273241
 31
0.0
  0
LINE
  5
1EE
  8
DATA
  6
CONTINUOUS
 62
     7
 10
145.6500000000001
 20
-586.3101819995426
 30
0.0
 11
148.3499999999999
 21
-586.3101819995426
 31
0.0
  0
LINE
  5
1EF
  8
DATA
  6
CONTINUOUS
 62
     7
 10
145.6500000000001
 20
-582.4114217233137
 30
0.0
 11
148.3499999999999
 21
-582.4114217233137
 31
0.0
  0
LINE
  5
1F0
  8
DATA
  6
CONTINUOUS
 62
     7
 10
162.3499999999999
 20
-587.9096733949187
 30
0.0
 11
173.6500000000001
 21
-587.9096733949187
 31
0.0
  0
LINE
  5
1F1
  8
DATA
  6
CONTINUOUS
 62
     7
 10
159.6500000000001
 20
-582.4114217233137
 30
0.0
 11
159.6500000000001
 21
-590.2000279273241
 31
0.0
  0
LINE
  5
1F2
  8
DATA
  6
CONTINUOUS
 62
     7
 10
162.3499999999999
 20
-582.4114217233137
 30
0.0
 11
162.3499999999999
 21
-590.2000279273241
 31
0.0
  0
LINE
  5
1F3
  8
DATA
  6
CONTINUOUS
 62
     7
 10
159.6500000000001
 20
-586.3101819995426
 30
0.0
 11
162.3499999999999
 21
-586.3101819995426
 31
0.0
  0
LINE
  5
1F4
  8
DATA
  6
CONTINUOUS
 62
     7
 10
159.6500000000001
 20
-582.4114217233137
 30
0.0
 11
162.3499999999999
 21
-582.4114217233137
 31
0.0
  0
LINE
  5
1F5
  8
DATA
  6
CONTINUOUS
 62
     7
 10
173.6500000000001
 20
-582.4114217233137
 30
0.0
 11
173.6500000000001
 21
-590.2000279273241
 31
0.0
  0
LINE
  5
1F6
  8
DATA
  6
CONTINUOUS
 62
     7
 10
176.3499999999999
 20
-582.4114217233137
 30
0.0
 11
176.3499999999999
 21
-590.2000279273241
 31
0.0
  0
LINE
  5
1F7
  8
DATA
  6
CONTINUOUS
 62
     7
 10
173.6500000000001
 20
-586.3101819995426
 30
0.0
 11
176.3499999999999
 21
-586.3101819995426
 31
0.0
  0
LINE
  5
1F8
  8
DATA
  6
CONTINUOUS
 62
     7
 10
173.6500000000001
 20
-582.4114217233137
 30
0.0
 11
176.3499999999999
 21
-582.4114217233137
 31
0.0
  0
LINE
  5
1F9
  8
DATA
  6
CONTINUOUS
 62
     7
 10
190.3499999999999
 20
-587.9096733949187
 30
0.0
 11
201.6500000000001
 21
-587.9096733949187
 31
0.0
  0
LINE
  5
1FA
  8
DATA
  6
CONTINUOUS
 62
     7
 10
187.6500000000001
 20
-582.4114217233137
 30
0.0
 11
187.6500000000001
 21
-590.2000279273241
 31
0.0
  0
LINE
  5
1FB
  8
DATA
  6
CONTINUOUS
 62
     7
 10
190.3499999999999
 20
-582.4114217233137
 30
0.0
 11
190.3499999999999
 21
-590.2000279273241
 31
0.0
  0
LINE
  5
1FC
  8
DATA
  6
CONTINUOUS
 62
     7
 10
187.6500000000001
 20
-586.3101819995426
 30
0.0
 11
190.3499999999999
 21
-586.3101819995426
 31
0.0
  0
LINE
  5
1FD
  8
DATA
  6
CONTINUOUS
 62
     7
 10
187.6500000000001
 20
-582.4114217233137
 30
0.0
 11
190.3499999999999
 21
-582.4114217233137
 31
0.0
  0
LINE
  5
1FE
  8
DATA
  6
CONTINUOUS
 62
     7
 10
201.6500000000001
 20
-582.4114217233137
 30
0.0
 11
201.6500000000001
 21
-590.2000279273241
 31
0.0
  0
LINE
  5
1FF
  8
DATA
  6
CONTINUOUS
 62
     7
 10
204.3499999999999
 20
-582.4114217233137
 30
0.0
 11
204.3499999999999
 21
-590.2000279273241
 31
0.0
  0
LINE
  5
200
  8
DATA
  6
CONTINUOUS
 62
     7
 10
201.6500000000001
 20
-586.3101819995426
 30
0.0
 11
204.3499999999999
 21
-586.3101819995426
 31
0.0
  0
LINE
  5
201
  8
DATA
  6
CONTINUOUS
 62
     7
 10
201.6500000000001
 20
-582.4114217233137
 30
0.0
 11
204.3499999999999
 21
-582.4114217233137
 31
0.0
  0
LINE
  5
202
  8
DATA
  6
CONTINUOUS
 62
     7
 10
215.6500000000001
 20
-582.4114217233137
 30
0.0
 11
215.6500000000001
 21
-590.2000279273241
 31
0.0
  0
LINE
  5
203
  8
DATA
  6
CONTINUOUS
 62
     7
 10
218.3499999999999
 20
-582.4114217233137
 30
0.0
 11
218.3499999999999
 21
-590.2000279273241
 31
0.0
  0
LINE
  5
204
  8
DATA
  6
CONTINUOUS
 62
     7
 10
215.6500000000001
 20
-586.3101819995426
 30
0.0
 11
218.3499999999999
 21
-586.3101819995426
 31
0.0
  0
LINE
  5
205
  8
DATA
  6
CONTINUOUS
 62
     7
 10
215.6500000000001
 20
-582.4114217233137
 30
0.0
 11
218.3499999999999
 21
-582.4114217233137
 31
0.0
  0
LINE
  5
206
  8
DATA
  6
CONTINUOUS
 62
     7
 10
119.5
 20
-590.6550384268842
 30
0.0
 11
230.5
 21
-590.6550384268842
 31
0.0
  0
LINE
  5
207
  8
DATA
  6
CONTINUOUS
 62
     7
 10
119.5
 20
-593.4079250665237
 30
0.0
 11
230.5
 21
-593.4079250665237
 31
0.0
  0
LINE
  5
208
  8
DATA
  6
CONTINUOUS
 62
     7
 10
178.8499999999999
 20
-593.4079250665237
 30
0.0
 11
178.8499999999999
 21
-590.6550384268842
 31
0.0
  0
LINE
  5
209
  8
DATA
  6
CONTINUOUS
 62
     7
 10
171.1500000000001
 20
-593.4079250665237
 30
0.0
 11
171.1500000000001
 21
-590.6550384268842
 31
0.0
  0
LINE
  5
20A
  8
DATA
  6
CONTINUOUS
 62
     7
 10
137.0
 20
-336.4896196842537
 30
0.0
 11
137.0
 21
-274.5093281134338
 31
0.0
  0
LINE
  5
20B
  8
DATA
  6
CONTINUOUS
 62
     7
 10
137.0
 20
-273.0098049302687
 30
0.0
 11
137.0
 21
-259.5140962817844
 31
0.0
  0
LINE
  5
20C
  8
DATA
  6
CONTINUOUS
 62
     7
 10
213.0
 20
-336.4896196842537
 30
0.0
 11
137.0
 21
-336.4896196842537
 31
0.0
  0
LINE
  5
20D
  8
DATA
  6
CONTINUOUS
 62
     7
 10
213.0
 20
-259.5140962817844
 30
0.0
 11
213.0
 21
-273.0098049302687
 31
0.0
  0
LINE
  5
20E
  8
DATA
  6
CONTINUOUS
 62
     7
 10
213.0
 20
-274.5093281134338
 30
0.0
 11
213.0
 21
-336.4896196842537
 31
0.0
  0
LINE
  5
20F
  8
DATA
  6
CONTINUOUS
 62
     7
 10
137.0
 20
-259.5140962817844
 30
0.0
 11
213.0
 21
-259.5140962817844
 31
0.0
  0
LINE
  5
210
  8
DATA
  6
CONTINUOUS
 62
     7
 10
137.0
 20
-273.0098049302687
 30
0.0
 11
213.0
 21
-273.0098049302687
 31
0.0
  0
LINE
  5
211
  8
DATA
  6
CONTINUOUS
 62
     7
 10
137.0
 20
-274.5093281134338
 30
0.0
 11
213.0
 21
-274.5093281134338
 31
0.0
  0
LINE
  5
212
  8
DATA
  6
CONTINUOUS
 62
     7
 10
146.5
 20
-508.9347857482287
 30
0.0
 11
146.5
 21
-463.9490902532788
 31
0.0
  0
LINE
  5
213
  8
DATA
  6
CONTINUOUS
 62
     7
 10
203.5
 20
-508.9347857482287
 30
0.0
 11
203.5
 21
-463.9490902532788
 31
0.0
  0
LINE
  5
214
  8
DATA
  6
CONTINUOUS
 62
     7
 10
152.5
 20
-514.9328784808887
 30
0.0
 11
197.5
 21
-514.9328784808887
 31
0.0
  0
LINE
  5
215
  8
DATA
  6
CONTINUOUS
 62
     7
 10
151.5
 20
-508.4349446871737
 30
0.0
 11
154.5
 21
-508.4349446871737
 31
0.0
  0
LINE
  5
216
  8
DATA
  6
CONTINUOUS
 62
     7
 10
153.0
 20
-509.9344678703387
 30
0.0
 11
153.0
 21
-506.9354215040087
 31
0.0
  0
LINE
  5
217
  8
DATA
  6
CONTINUOUS
 62
     7
 10
163.5
 20
-508.6848652177013
 30
0.0
 11
167.5
 21
-508.6848652177013
 31
0.0
  0
LINE
  5
218
  8
DATA
  6
CONTINUOUS
 62
     7
 10
182.5
 20
-508.6848652177013
 30
0.0
 11
186.5
 21
-508.6848652177013
 31
0.0
  0
LINE
  5
219
  8
DATA
  6
CONTINUOUS
 62
     7
 10
184.5
 20
-510.6842294619212
 30
0.0
 11
184.5
 21
-506.6855009734812
 31
0.0
  0
LINE
  5
21A
  8
DATA
  6
CONTINUOUS
 62
     7
 10
152.5
 20
-457.9509975206187
 30
0.0
 11
197.5
 21
-457.9509975206187
 31
0.0
  0
LINE
  5
21B
  8
DATA
  6
CONTINUOUS
 62
     7
 10
156.0
 20
-470.4470240469938
 30
0.0
 11
194.0
 21
-470.4470240469938
 31
0.0
  0
LINE
  5
21C
  8
DATA
  6
CONTINUOUS
 62
     7
 10
194.0
 20
-502.4368519545137
 30
0.0
 11
194.0
 21
-470.4470240469938
 31
0.0
  0
LINE
  5
21D
  8
DATA
  6
CONTINUOUS
 62
     7
 10
156.0
 20
-502.4368519545137
 30
0.0
 11
194.0
 21
-502.4368519545137
 31
0.0
  0
LINE
  5
21E
  8
DATA
  6
CONTINUOUS
 62
     7
 10
156.0
 20
-478.4444810238738
 30
0.0
 11
194.0
 21
-478.4444810238738
 31
0.0
  0
LINE
  5
21F
  8
DATA
  6
CONTINUOUS
 62
     7
 10
156.0
 20
-502.4368519545137
 30
0.0
 11
156.0
 21
-470.4470240469938
 31
0.0
  0
LINE
  5
220
  8
DATA
  6
CONTINUOUS
 62
     7
 10
178.75
 20
-495.9389181607987
 30
0.0
 11
178.75
 21
-478.4444810238738
 31
0.0
  0
LINE
  5
221
  8
DATA
  6
CONTINUOUS
 62
     7
 10
171.25
 20
-495.9389181607987
 30
0.0
 11
171.25
 21
-478.4444810238738
 31
0.0
  0
LINE
  5
222
  8
DATA
  6
CONTINUOUS
 62
     7
 10
159.75
 20
-495.9389181607987
 30
0.0
 11
159.75
 21
-478.4444810238738
 31
0.0
  0
LINE
  5
223
  8
DATA
  6
CONTINUOUS
 62
     7
 10
190.25
 20
-495.9389181607987
 30
0.0
 11
190.25
 21
-478.4444810238738
 31
0.0
  0
LINE
  5
224
  8
DATA
  6
CONTINUOUS
 62
     7
 10
156.0
 20
-495.9389181607987
 30
0.0
 11
194.0
 21
-495.9389181607987
 31
0.0
  0
LINE
  5
225
  8
DATA
  6
CONTINUOUS
 62
     7
 10
176.5
 20
-477.6947194322912
 30
0.0
 11
176.5
 21
-471.1967856385762
 31
0.0
  0
LINE
  5
226
  8
DATA
  6
CONTINUOUS
 62
     7
 10
176.5
 20
-471.1967856385762
 30
0.0
 11
192.5
 21
-471.1967856385762
 31
0.0
  0
LINE
  5
227
  8
DATA
  6
CONTINUOUS
 62
     7
 10
192.5
 20
-471.1967856385762
 30
0.0
 11
192.5
 21
-477.6947194322912
 31
0.0
  0
LINE
  5
228
  8
DATA
  6
CONTINUOUS
 62
     7
 10
192.5
 20
-477.6947194322912
 30
0.0
 11
176.5
 21
-477.6947194322912
 31
0.0
  0
LINE
  5
229
  8
DATA
  6
CONTINUOUS
 62
     7
 10
182.75
 20
-476.6950373101812
 30
0.0
 11
182.75
 21
-472.1964677606862
 31
0.0
  0
LINE
  5
22A
  8
DATA
  6
CONTINUOUS
 62
     7
 10
182.75
 20
-472.1964677606862
 30
0.0
 11
186.25
 21
-472.1964677606862
 31
0.0
  0
LINE
  5
22B
  8
DATA
  6
CONTINUOUS
 62
     7
 10
186.25
 20
-472.1964677606862
 30
0.0
 11
186.25
 21
-476.6950373101812
 31
0.0
  0
LINE
  5
22C
  8
DATA
  6
CONTINUOUS
 62
     7
 10
186.25
 20
-476.6950373101812
 30
0.0
 11
182.75
 21
-476.6950373101812
 31
0.0
  0
LINE
  5
22D
  8
DATA
  6
CONTINUOUS
 62
     7
 10
157.5
 20
-477.6947194322912
 30
0.0
 11
157.5
 21
-471.1967856385762
 31
0.0
  0
LINE
  5
22E
  8
DATA
  6
CONTINUOUS
 62
     7
 10
157.5
 20
-471.1967856385762
 30
0.0
 11
173.5
 21
-471.1967856385762
 31
0.0
  0
LINE
  5
22F
  8
DATA
  6
CONTINUOUS
 62
     7
 10
173.5
 20
-471.1967856385762
 30
0.0
 11
173.5
 21
-477.6947194322912
 31
0.0
  0
LINE
  5
230
  8
DATA
  6
CONTINUOUS
 62
     7
 10
173.5
 20
-477.6947194322912
 30
0.0
 11
157.5
 21
-477.6947194322912
 31
0.0
  0
LINE
  5
231
  8
DATA
  6
CONTINUOUS
 62
     7
 10
163.75
 20
-476.6950373101812
 30
0.0
 11
163.75
 21
-472.1964677606862
 31
0.0
  0
LINE
  5
232
  8
DATA
  6
CONTINUOUS
 62
     7
 10
163.75
 20
-472.1964677606862
 30
0.0
 11
167.25
 21
-472.1964677606862
 31
0.0
  0
LINE
  5
233
  8
DATA
  6
CONTINUOUS
 62
     7
 10
167.25
 20
-472.1964677606862
 30
0.0
 11
167.25
 21
-476.6950373101812
 31
0.0
  0
LINE
  5
234
  8
DATA
  6
CONTINUOUS
 62
     7
 10
167.25
 20
-476.6950373101812
 30
0.0
 11
163.75
 21
-476.6950373101812
 31
0.0
  0
LINE
  5
235
  8
DATA
  6
CONTINUOUS
 62
     7
 10
178.75
 20
-491.9401896723588
 30
0.0
 11
190.25
 21
-491.9401896723588
 31
0.0
  0
LINE
  5
236
  8
DATA
  6
CONTINUOUS
 62
     7
 10
178.75
 20
-490.4406664891937
 30
0.0
 11
190.25
 21
-490.4406664891937
 31
0.0
  0
LINE
  5
237
  8
DATA
  6
CONTINUOUS
 62
     7
 10
171.25
 20
-491.9401896723588
 30
0.0
 11
159.75
 21
-491.9401896723588
 31
0.0
  0
LINE
  5
238
  8
DATA
  6
CONTINUOUS
 62
     7
 10
171.25
 20
-490.4406664891937
 30
0.0
 11
159.75
 21
-490.4406664891937
 31
0.0
  0
LINE
  5
239
  8
DATA
  6
CONTINUOUS
 62
     7
 10
138.0
 20
-515.4327195419439
 30
0.0
 11
138.0
 21
-457.4511564595635
 31
0.0
  0
LINE
  5
23A
  8
DATA
  6
CONTINUOUS
 62
     7
 10
204.0
 20
-523.4301765188237
 30
0.0
 11
146.0
 21
-523.4301765188237
 31
0.0
  0
LINE
  5
23B
  8
DATA
  6
CONTINUOUS
 62
     7
 10
212.0
 20
-457.4511564595635
 30
0.0
 11
212.0
 21
-515.4327195419439
 31
0.0
  0
LINE
  5
23C
  8
DATA
  6
CONTINUOUS
 62
     7
 10
146.0
 20
-449.4536994826838
 30
0.0
 11
204.0
 21
-449.4536994826838
 31
0.0
  0
LINE
  5
23D
  8
DATA
  6
CONTINUOUS
 62
     7
 10
203.5
 20
-552.4209580600137
 30
0.0
 11
178.0
 21
-552.4209580600137
 31
0.0
  0
LINE
  5
23E
  8
DATA
  6
CONTINUOUS
 62
     7
 10
203.5
 20
-539.9249315336388
 30
0.0
 11
203.5
 21
-552.4209580600137
 31
0.0
  0
LINE
  5
23F
  8
DATA
  6
CONTINUOUS
 62
     7
 10
178.0
 20
-539.9249315336388
 30
0.0
 11
203.5
 21
-539.9249315336388
 31
0.0
  0
LINE
  5
240
  8
DATA
  6
CONTINUOUS
 62
     7
 10
146.5
 20
-539.9249315336388
 30
0.0
 11
172.0
 21
-539.9249315336388
 31
0.0
  0
LINE
  5
241
  8
DATA
  6
CONTINUOUS
 62
     7
 10
146.5
 20
-552.4209580600137
 30
0.0
 11
146.5
 21
-539.9249315336388
 31
0.0
  0
LINE
  5
242
  8
DATA
  6
CONTINUOUS
 62
     7
 10
172.0
 20
-552.4209580600137
 30
0.0
 11
146.5
 21
-552.4209580600137
 31
0.0
  0
LINE
  5
243
  8
DATA
  6
CONTINUOUS
 62
     7
 10
76.0
 20
-594.4076071886337
 30
0.0
 11
76.0
 21
-216.5277650310543
 31
0.0
  0
LINE
  5
244
  8
DATA
  6
CONTINUOUS
 62
     7
 10
274.0
 20
-594.4076071886337
 30
0.0
 11
274.0
 21
-216.5277650310543
 31
0.0
  0
LINE
  5
245
  8
DATA
  6
CONTINUOUS
 62
     7
 10
155.7311250011329
 20
-301.888996954722
 30
0.0
 11
159.4672750009835
 21
-292.9896267676304
 31
0.0
  0
LINE
  5
246
  8
DATA
  6
CONTINUOUS
 62
     7
 10
155.7311250011329
 20
-301.888996954722
 30
0.0
 11
152.0410750012812
 21
-292.9896267676304
 31
0.0
  0
LINE
  5
247
  8
DATA
  6
CONTINUOUS
 62
     7
 10
184.0521250000002
 20
-317.9816798193806
 30
0.0
 11
184.0521250000002
 21
-292.9896267676304
 31
0.0
  0
LINE
  5
248
  8
DATA
  6
CONTINUOUS
 62
     7
 10
188.8491749998085
 20
-292.9896267676304
 30
0.0
 11
188.8491749998085
 21
-314.1544967832479
 31
0.0
  0
LINE
  5
249
  8
DATA
  6
CONTINUOUS
 62
     7
 10
161.2200500009133
 20
-292.9896267676304
 30
0.0
 11
161.2200500009133
 21
-314.1544967832479
 31
0.0
  0
LINE
  5
24A
  8
DATA
  6
CONTINUOUS
 62
     7
 10
165.8326000007287
 20
-292.9896267676304
 30
0.0
 11
165.8326000007287
 21
-314.1544967832479
 31
0.0
  0
LINE
  5
24B
  8
DATA
  6
CONTINUOUS
 62
     7
 10
168.2311250006329
 20
-292.9896267676304
 30
0.0
 11
168.2311250006329
 21
-317.9816798193806
 31
0.0
  0
LINE
  5
24C
  8
DATA
  6
CONTINUOUS
 62
     7
 10
172.4285500004655
 20
-295.3412539995351
 30
0.0
 11
172.4285500004655
 21
-303.3645527589504
 31
0.0
  0
LINE
  5
24D
  8
DATA
  6
CONTINUOUS
 62
     7
 10
181.4250000001051
 20
-302.9003003814611
 30
0.0
 11
181.4250000001051
 21
-297.047386485219
 31
0.0
  0
LINE
  5
24E
  8
DATA
  6
CONTINUOUS
 62
     7
 10
176.9949250002828
 20
-296.4479271007195
 30
0.0
 11
176.9949250002828
 21
-302.257904649819
 31
0.0
  0
LINE
  5
24F
  8
DATA
  6
CONTINUOUS
 62
     7
 10
157.7145250010543
 20
-310.1428224114871
 30
0.0
 11
157.7145250010543
 21
-314.1544467991419
 31
0.0
  0
LINE
  5
250
  8
DATA
  6
CONTINUOUS
 62
     7
 10
157.7145250010543
 20
-310.1428224114871
 30
0.0
 11
153.5632250012203
 21
-310.1428224114871
 31
0.0
  0
LINE
  5
251
  8
DATA
  6
CONTINUOUS
 62
     7
 10
153.5632250012203
 20
-310.1428224114871
 30
0.0
 11
153.5632250012203
 21
-314.1544467991419
 31
0.0
  0
LINE
  5
252
  8
DATA
  6
CONTINUOUS
 62
     7
 10
196.5521249995002
 20
-317.9816548273276
 30
0.0
 11
184.0521250000002
 21
-317.9816548273276
 31
0.0
  0
LINE
  5
253
  8
DATA
  6
CONTINUOUS
 62
     7
 10
196.5521249995002
 20
-317.9816548273276
 30
0.0
 11
196.5521249995002
 21
-310.1427974194341
 31
0.0
  0
LINE
  5
254
  8
DATA
  6
CONTINUOUS
 62
     7
 10
196.5521249995002
 20
-310.1428224114871
 30
0.0
 11
192.3547249996681
 21
-310.1428224114871
 31
0.0
  0
LINE
  5
255
  8
DATA
  6
CONTINUOUS
 62
     7
 10
192.3547249996681
 20
-310.1428224114871
 30
0.0
 11
192.3547249996681
 21
-314.1544467991419
 31
0.0
  0
LINE
  5
256
  8
DATA
  6
CONTINUOUS
 62
     7
 10
168.2311250006329
 20
-317.9816548273276
 30
0.0
 11
176.9949250002828
 21
-317.9816298352746
 31
0.0
  0
LINE
  5
257
  8
DATA
  6
CONTINUOUS
 62
     7
 10
172.4285250004649
 20
-315.63000260337
 30
0.0
 11
174.6886750003748
 21
-315.63000260337
 31
0.0
  0
LINE
  5
258
  8
DATA
  6
CONTINUOUS
 62
     7
 10
172.4285500004655
 20
-315.63000260337
 30
0.0
 11
172.4285500004655
 21
-305.7622903287354
 31
0.0
  0
LINE
  5
259
  8
DATA
  6
CONTINUOUS
 62
     7
 10
172.4285250004649
 20
-305.7622903287354
 30
0.0
 11
174.6886750003748
 21
-305.7622903287354
 31
0.0
  0
LINE
  5
25A
  8
DATA
  6
CONTINUOUS
 62
     7
 10
176.9949250002828
 20
-314.5233544942384
 30
0.0
 11
176.9949250002828
 21
-306.868938437867
 31
0.0
  0
LINE
  5
25B
  8
DATA
  6
CONTINUOUS
 62
     7
 10
181.4229750001053
 20
-313.9700054476199
 30
0.0
 11
181.4229750001053
 21
-307.330066808725
 31
0.0
  0
LINE
  5
25C
  8
DATA
  6
CONTINUOUS
 62
     7
 10
172.4285250004649
 20
-303.3645527589504
 30
0.0
 11
174.6886750003748
 21
-303.3645527589504
 31
0.0
  0
LINE
  5
25D
  8
DATA
  6
CONTINUOUS
 62
     7
 10
161.2200500009133
 20
-292.9896267676304
 30
0.0
 11
165.8326000007287
 21
-292.9896267676304
 31
0.0
  0
LINE
  5
25E
  8
DATA
  6
CONTINUOUS
 62
     7
 10
152.0410750012812
 20
-292.9896267676304
 30
0.0
 11
159.4672750009835
 21
-292.9896267676304
 31
0.0
  0
LINE
  5
25F
  8
DATA
  6
CONTINUOUS
 62
     7
 10
184.0521250000002
 20
-292.9896267676304
 30
0.0
 11
188.8491749998085
 21
-292.9896267676304
 31
0.0
  0
LINE
  5
260
  8
DATA
  6
CONTINUOUS
 62
     7
 10
168.2311250006329
 20
-292.9896267676304
 30
0.0
 11
177.0431003206471
 21
-292.9896469955496
 31
0.0
  0
LINE
  5
261
  8
DATA
  6
CONTINUOUS
 62
     7
 10
172.4285250004649
 20
-295.341278991588
 30
0.0
 11
174.6886750003748
 21
-295.341278991588
 31
0.0
  0
LINE
  5
262
  8
DATA
  6
CONTINUOUS
 62
     7
 10
159.1009829281973
 20
-318.0093003549632
 30
0.0
 11
160.2946578085071
 21
-318.0093041518419
 31
0.0
  0
LINE
  5
263
  8
DATA
  6
CONTINUOUS
 62
     7
 10
195.5
 20
-508.4349446871737
 30
0.0
 11
198.5
 21
-508.4349446871737
 31
0.0
  0
LINE
  5
264
  8
DATA
  6
CONTINUOUS
 62
     7
 10
197.0
 20
-509.9344678703387
 30
0.0
 11
197.0
 21
-506.9354215040087
 31
0.0
  0
LINE
  5
265
  8
DATA
  6
CONTINUOUS
 62
     7
 10
151.5
 20
-464.4489313143337
 30
0.0
 11
154.5
 21
-464.4489313143337
 31
0.0
  0
LINE
  5
266
  8
DATA
  6
CONTINUOUS
 62
     7
 10
153.0
 20
-465.9484544974987
 30
0.0
 11
153.0
 21
-462.9494081311686
 31
0.0
  0
LINE
  5
267
  8
DATA
  6
CONTINUOUS
 62
     7
 10
195.5
 20
-464.4489313143337
 30
0.0
 11
198.5
 21
-464.4489313143337
 31
0.0
  0
LINE
  5
268
  8
DATA
  6
CONTINUOUS
 62
     7
 10
197.0
 20
-465.9484544974987
 30
0.0
 11
197.0
 21
-462.9494081311686
 31
0.0
  0
LINE
  5
269
  8
DATA
  6
CONTINUOUS
 62
     7
 10
49.58750000000009
 20
-589.4076071884762
 30
0.0
 11
49.58750000000009
 21
-212.0576071765873
 31
0.0
  0
LINE
  5
26A
  8
DATA
  6
CONTINUOUS
 62
     7
 10
54.58750000000009
 20
-207.0576071764298
 30
0.0
 11
295.4124999999999
 21
-207.0576071764298
 31
0.0
  0
LINE
  5
26B
  8
DATA
  6
CONTINUOUS
 62
     7
 10
54.58750000000009
 20
-594.4076071886337
 30
0.0
 11
295.4124999999999
 21
-594.4076071886337
 31
0.0
  0
LINE
  5
26C
  8
DATA
  6
CONTINUOUS
 62
     7
 10
76.0
 20
-216.5277650310543
 30
0.0
 11
51.05196606337762
 21
-208.5220732399188
 31
0.0
  0
LINE
  5
26D
  8
DATA
  6
CONTINUOUS
 62
     7
 10
300.4124999999999
 20
-212.0576071765873
 30
0.0
 11
300.4124999999999
 21
-589.4076071884762
 31
0.0
  0
LINE
  5
26E
  8
DATA
  6
CONTINUOUS
 62
     7
 10
274.0
 20
-216.5277650310543
 30
0.0
 11
298.9480339366224
 21
-208.5220732399188
 31
0.0
  0
ARC
  5
26F
  8
DATA
  6
CONTINUOUS
 62
     7
 10
184.5
 20
-508.6856600387742
 30
0.0
 40
2.500000126348027
 50
90.00000000000064
 51
179.9817840434311
  0
ARC
  5
270
  8
DATA
  6
CONTINUOUS
 62
     7
 10
184.5
 20
-508.6856600387742
 30
0.0
 40
2.500000126348133
 50
0.0182159565689315
 51
89.99999999999936
  0
ARC
  5
271
  8
DATA
  6
CONTINUOUS
 62
     7
 10
184.5
 20
-508.6856600387742
 30
0.0
 40
2.500000126348133
 50
180.018215956569
 51
269.9999999999993
  0
ARC
  5
272
  8
DATA
  6
CONTINUOUS
 62
     7
 10
184.5
 20
-508.6856600387742
 30
0.0
 40
2.500000126348027
 50
270.0000000000007
 51
359.9817840434311
  0
ARC
  5
273
  8
DATA
  6
CONTINUOUS
 62
     7
 10
165.5
 20
-508.6856600387742
 30
0.0
 40
2.500000126348027
 50
90.00000000000064
 51
179.9817840434311
  0
ARC
  5
274
  8
DATA
  6
CONTINUOUS
 62
     7
 10
153.0
 20
-508.4358984724615
 30
0.0
 40
3.000000151617769
 50
90.00000000000054
 51
179.981784043431
  0
ARC
  5
275
  8
DATA
  6
CONTINUOUS
 62
     7
 10
144.0
 20
-455.4527142077885
 30
0.0
 40
2.900000146563912
 50
90.0
 51
179.9817840434293
  0
ARC
  5
276
  8
DATA
  6
CONTINUOUS
 62
     7
 10
197.5009534821002
 20
-508.9338319629406
 30
0.0
 40
5.999046593720763
 50
269.9908934695605
 51
359.9908905738708
  0
ARC
  5
277
  8
DATA
  6
CONTINUOUS
 62
     7
 10
152.4990465178998
 20
-508.9338319629406
 30
0.0
 40
5.999046593720698
 50
180.0091094261292
 51
270.0091065304395
  0
ARC
  5
278
  8
DATA
  6
CONTINUOUS
 62
     7
 10
197.5009534821002
 20
-463.9500440385667
 30
0.0
 40
5.999046593720698
 50
0.0091094261292275
 51
90.00910653043951
  0
ARC
  5
279
  8
DATA
  6
CONTINUOUS
 62
     7
 10
152.4990465178998
 20
-463.9500440385667
 30
0.0
 40
5.999046593720763
 50
89.99089346956055
 51
179.9908905738708
  0
ARC
  5
27A
  8
DATA
  6
CONTINUOUS
 62
     7
 10
204.0012713094671
 20
-515.4314478282265
 30
0.0
 40
7.99872879162738
 50
269.9908934695594
 51
359.9908905738705
  0
ARC
  5
27B
  8
DATA
  6
CONTINUOUS
 62
     7
 10
145.9987286905329
 20
-515.4314478282265
 30
0.0
 40
7.998728791627436
 50
180.0091094261295
 51
270.0091065304406
  0
ARC
  5
27C
  8
DATA
  6
CONTINUOUS
 62
     7
 10
204.0012713094671
 20
-457.4524281732809
 30
0.0
 40
7.998728791627436
 50
0.0091094261294991
 51
90.00910653044063
  0
ARC
  5
27D
  8
DATA
  6
CONTINUOUS
 62
     7
 10
145.9987286905329
 20
-457.4524281732809
 30
0.0
 40
7.99872879162738
 50
89.99089346955938
 51
179.9908905738705
  0
ARC
  5
27E
  8
DATA
  6
CONTINUOUS
 62
     7
 10
121.0
 20
-380.226721949329
 30
0.0
 40
3.175000160462218
 50
89.99999999999949
 51
179.9817840434324
  0
ARC
  5
27F
  8
DATA
  6
CONTINUOUS
 62
     7
 10
139.9999999999999
 20
-234.5230526517972
 30
0.0
 40
3.175000160462275
 50
89.99999999999899
 51
179.9817840434304
  0
ARC
  5
280
  8
DATA
  6
CONTINUOUS
 62
     7
 10
133.0
 20
-250.7161658827525
 30
0.0
 40
30.01120062967669
 50
87.42178218770873
 51
92.5782178122913
  0
ARC
  5
281
  8
DATA
  6
CONTINUOUS
 62
     7
 10
190.6019544621198
 20
-314.1994436609359
 30
0.0
 40
1.753331307603366
 50
178.5302373050876
 51
1.469771730815012
  0
ARC
  5
282
  8
DATA
  6
CONTINUOUS
 62
     7
 10
179.0041574868924
 20
-307.4939690771615
 30
0.0
 40
2.424364270447785
 50
3.876511792813522
 51
88.37043975520706
  0
ARC
  5
283
  8
DATA
  6
CONTINUOUS
 62
     7
 10
178.9935388430858
 20
-302.6248625268088
 30
0.0
 40
2.447012335454944
 50
271.8632226864124
 51
353.5370399276931
  0
ARC
  5
284
  8
DATA
  6
CONTINUOUS
 62
     7
 10
176.6338544948574
 20
-297.8378915610824
 30
0.0
 40
4.861641569208055
 50
9.908766440776116
 51
85.74076330646739
  0
ARC
  5
285
  8
DATA
  6
CONTINUOUS
 62
     7
 10
175.8994114765206
 20
-314.275474100789
 30
0.0
 40
1.123207269475335
 50
286.2506393622348
 51
347.2504482105802
  0
ARC
  5
286
  8
DATA
  6
CONTINUOUS
 62
     7
 10
174.7419714432566
 20
-311.5758025819052
 30
0.0
 40
4.054550323385935
 50
269.2468340648689
 51
291.283887992733
  0
ARC
  5
287
  8
DATA
  6
CONTINUOUS
 62
     7
 10
176.6338544948574
 20
-313.1334150259287
 30
0.0
 40
4.861641569208013
 50
274.2592366935327
 51
350.0912335592252
  0
ARC
  5
288
  8
DATA
  6
CONTINUOUS
 62
     7
 10
155.984825001123
 20
-305.3480775029512
 30
0.0
 40
2.375450119957804
 50
89.99999999999451
 51
179.9817840434327
  0
ARC
  5
289
  8
DATA
  6
CONTINUOUS
 62
     7
 10
159.1009829281973
 20
-311.5618414197282
 30
0.0
 40
6.447496339772584
 50
216.0192896884696
 51
270.1949839591526
  0
ARC
  5
28A
  8
DATA
  6
CONTINUOUS
 62
     7
 10
162.9206489224938
 20
-314.0131396609964
 30
0.0
 40
2.915348519554582
 50
332.6324659379216
 51
357.2217851238406
  0
ARC
  5
28B
  8
DATA
  6
CONTINUOUS
 62
     7
 10
160.2946578085071
 20
-311.5614030455069
 30
0.0
 40
6.447913640403712
 50
269.8868447428922
 51
323.9785225631047
  0
ARC
  5
28C
  8
DATA
  6
CONTINUOUS
 62
     7
 10
159.4580308081462
 20
-314.2084493851164
 30
0.0
 40
1.74434115929404
 50
178.2267332931532
 51
270.303640798787
  0
ARC
  5
28D
  8
DATA
  6
CONTINUOUS
 62
     7
 10
159.4763677148757
 20
-314.2082867758223
 30
0.0
 40
1.744511759187061
 50
269.702183678282
 51
1.766928823386422
  0
ARC
  5
28E
  8
DATA
  6
CONTINUOUS
 62
     7
 10
156.4758455958524
 20
-314.0129164617323
 30
0.0
 40
2.916057195029359
 50
182.7819337937428
 51
207.3658175471067
  0
ARC
  5
28F
  8
DATA
  6
CONTINUOUS
 62
     7
 10
155.984825001123
 20
-305.3480775029512
 30
0.0
 40
2.375450119957775
 50
0.0182159565672876
 51
90.00000000000547
  0
ARC
  5
290
  8
DATA
  6
CONTINUOUS
 62
     7
 10
155.984825001123
 20
-305.3480775029512
 30
0.0
 40
2.375450119957747
 50
180.0182159565673
 51
270.0000000000055
  0
ARC
  5
291
  8
DATA
  6
CONTINUOUS
 62
     7
 10
155.984825001123
 20
-305.3480775029512
 30
0.0
 40
2.375450119957804
 50
269.9999999999945
 51
359.9817840434328
  0
ARC
  5
292
  8
DATA
  6
CONTINUOUS
 62
     7
 10
175.8994114765206
 20
-307.1168188313164
 30
0.0
 40
1.123207269475446
 50
12.74955178941791
 51
73.7493606377654
  0
ARC
  5
293
  8
DATA
  6
CONTINUOUS
 62
     7
 10
174.7419714432566
 20
-309.8164903502003
 30
0.0
 40
4.05455032338601
 50
68.71611200726716
 51
90.75316593513118
  0
ARC
  5
294
  8
DATA
  6
CONTINUOUS
 62
     7
 10
175.8994114765206
 20
-302.0100242563693
 30
0.0
 40
1.123207269475335
 50
286.2506393622348
 51
347.2504482105802
  0
ARC
  5
295
  8
DATA
  6
CONTINUOUS
 62
     7
 10
174.7419714432566
 20
-299.3103527374855
 30
0.0
 40
4.054550323386048
 50
269.2468340648689
 51
291.2838879927322
  0
ARC
  5
296
  8
DATA
  6
CONTINUOUS
 62
     7
 10
175.8994114765206
 20
-296.695807494169
 30
0.0
 40
1.123207269475446
 50
12.74955178941791
 51
73.7493606377654
  0
ARC
  5
297
  8
DATA
  6
CONTINUOUS
 62
     7
 10
174.7419714432566
 20
-299.3954790130527
 30
0.0
 40
4.05455032338601
 50
68.71611200726716
 51
90.75316593513121
  0
ARC
  5
298
  8
DATA
  6
CONTINUOUS
 62
     7
 10
147.0
 20
-250.7161658827525
 30
0.0
 40
30.01120062967669
 50
87.42178218770873
 51
92.5782178122913
  0
ARC
  5
299
  8
DATA
  6
CONTINUOUS
 62
     7
 10
161.0
 20
-250.7161658827525
 30
0.0
 40
30.01120062967669
 50
87.42178218770873
 51
92.5782178122913
  0
ARC
  5
29A
  8
DATA
  6
CONTINUOUS
 62
     7
 10
175.0
 20
-250.7161658827525
 30
0.0
 40
30.01120062967669
 50
87.42178218770873
 51
92.5782178122913
  0
ARC
  5
29B
  8
DATA
  6
CONTINUOUS
 62
     7
 10
189.0
 20
-250.7161658827525
 30
0.0
 40
30.01120062967669
 50
87.42178218770873
 51
92.5782178122913
  0
ARC
  5
29C
  8
DATA
  6
CONTINUOUS
 62
     7
 10
203.0
 20
-250.7161658827525
 30
0.0
 40
30.01120062967669
 50
87.42178218770873
 51
92.5782178122913
  0
ARC
  5
29D
  8
DATA
  6
CONTINUOUS
 62
     7
 10
217.0
 20
-250.7161658827525
 30
0.0
 40
30.01120062967669
 50
87.42178218770873
 51
92.5782178122913
  0
ARC
  5
29E
  8
DATA
  6
CONTINUOUS
 62
     7
 10
139.9999999999999
 20
-234.5230526517972
 30
0.0
 40
3.175000160462218
 50
180.0182159565696
 51
270.000000000001
  0
ARC
  5
29F
  8
DATA
  6
CONTINUOUS
 62
     7
 10
139.9999999999999
 20
-234.5230526517972
 30
0.0
 40
3.175000160462246
 50
0.0182159565696489
 51
90.00000000000053
  0
ARC
  5
2A0
  8
DATA
  6
CONTINUOUS
 62
     7
 10
139.9999999999999
 20
-234.5230526517972
 30
0.0
 40
3.175000160462275
 50
269.9999999999995
 51
359.9817840434303
  0
ARC
  5
2A1
  8
DATA
  6
CONTINUOUS
 62
     7
 10
210.0000000000001
 20
-234.5230526517972
 30
0.0
 40
3.175000160462275
 50
89.99999999999949
 51
179.9817840434304
  0
ARC
  5
2A2
  8
DATA
  6
CONTINUOUS
 62
     7
 10
210.0000000000001
 20
-234.5230526517972
 30
0.0
 40
3.175000160462246
 50
180.0182159565696
 51
270.0000000000005
  0
ARC
  5
2A3
  8
DATA
  6
CONTINUOUS
 62
     7
 10
210.0000000000001
 20
-234.5230526517972
 30
0.0
 40
3.175000160462218
 50
0.0182159565696491
 51
90.00000000000107
  0
ARC
  5
2A4
  8
DATA
  6
CONTINUOUS
 62
     7
 10
210.0000000000001
 20
-234.5230526517972
 30
0.0
 40
3.175000160462275
 50
269.999999999999
 51
359.9817840434303
  0
ARC
  5
2A5
  8
DATA
  6
CONTINUOUS
 62
     7
 10
140.0000000000001
 20
-576.4143384134167
 30
0.0
 40
3.175000160462332
 50
89.99999999999949
 51
179.9817840434283
  0
ARC
  5
2A6
  8
DATA
  6
CONTINUOUS
 62
     7
 10
140.0000000000001
 20
-576.4143384134167
 30
0.0
 40
3.175000160462246
 50
180.0182159565676
 51
270.0000000000005
  0
ARC
  5
2A7
  8
DATA
  6
CONTINUOUS
 62
     7
 10
140.0000000000001
 20
-576.4143384134167
 30
0.0
 40
3.175000160462218
 50
0.0182159565717006
 51
90.00000000000104
  0
ARC
  5
2A8
  8
DATA
  6
CONTINUOUS
 62
     7
 10
140.0000000000001
 20
-576.4143384134167
 30
0.0
 40
3.175000160462218
 50
269.999999999999
 51
359.9817840434325
  0
ARC
  5
2A9
  8
DATA
  6
CONTINUOUS
 62
     7
 10
210.0000000000001
 20
-576.4143384134167
 30
0.0
 40
3.175000160462332
 50
89.99999999999949
 51
179.9817840434283
  0
ARC
  5
2AA
  8
DATA
  6
CONTINUOUS
 62
     7
 10
210.0000000000001
 20
-576.4143384134167
 30
0.0
 40
3.175000160462246
 50
180.0182159565676
 51
270.0000000000005
  0
ARC
  5
2AB
  8
DATA
  6
CONTINUOUS
 62
     7
 10
210.0000000000001
 20
-576.4143384134167
 30
0.0
 40
3.175000160462218
 50
0.0182159565717006
 51
90.00000000000104
  0
ARC
  5
2AC
  8
DATA
  6
CONTINUOUS
 62
     7
 10
210.0000000000001
 20
-576.4143384134167
 30
0.0
 40
3.175000160462218
 50
269.999999999999
 51
359.9817840434325
  0
ARC
  5
2AD
  8
DATA
  6
CONTINUOUS
 62
     7
 10
133.0
 20
-560.2192063369356
 30
0.0
 40
30.01120062967664
 50
267.4217821877087
 51
272.5782178122913
  0
ARC
  5
2AE
  8
DATA
  6
CONTINUOUS
 62
     7
 10
147.0
 20
-560.2192063369356
 30
0.0
 40
30.01120062967664
 50
267.4217821877087
 51
272.5782178122913
  0
ARC
  5
2AF
  8
DATA
  6
CONTINUOUS
 62
     7
 10
161.0
 20
-560.2192063369356
 30
0.0
 40
30.01120062967664
 50
267.4217821877087
 51
272.5782178122913
  0
ARC
  5
2B0
  8
DATA
  6
CONTINUOUS
 62
     7
 10
175.0
 20
-560.2192063369356
 30
0.0
 40
30.01120062967664
 50
267.4217821877087
 51
272.5782178122913
  0
ARC
  5
2B1
  8
DATA
  6
CONTINUOUS
 62
     7
 10
189.0
 20
-560.2192063369356
 30
0.0
 40
30.01120062967664
 50
267.4217821877087
 51
272.5782178122913
  0
ARC
  5
2B2
  8
DATA
  6
CONTINUOUS
 62
     7
 10
203.0
 20
-560.2192063369356
 30
0.0
 40
30.01120062967664
 50
267.4217821877087
 51
272.5782178122913
  0
ARC
  5
2B3
  8
DATA
  6
CONTINUOUS
 62
     7
 10
217.0
 20
-560.2192063369356
 30
0.0
 40
30.01120062967664
 50
267.4217821877087
 51
272.5782178122913
  0
ARC
  5
2B4
  8
DATA
  6
CONTINUOUS
 62
     7
 10
121.0
 20
-380.226721949329
 30
0.0
 40
3.175000160462246
 50
0.0182159565675973
 51
90.00000000000053
  0
ARC
  5
2B5
  8
DATA
  6
CONTINUOUS
 62
     7
 10
121.0
 20
-380.226721949329
 30
0.0
 40
3.175000160462246
 50
180.0182159565676
 51
270.0000000000005
  0
ARC
  5
2B6
  8
DATA
  6
CONTINUOUS
 62
     7
 10
121.0
 20
-380.226721949329
 30
0.0
 40
3.175000160462218
 50
269.9999999999995
 51
359.9817840434325
  0
ARC
  5
2B7
  8
DATA
  6
CONTINUOUS
 62
     7
 10
229.0
 20
-380.226721949329
 30
0.0
 40
3.175000160462218
 50
89.99999999999949
 51
179.9817840434324
  0
ARC
  5
2B8
  8
DATA
  6
CONTINUOUS
 62
     7
 10
229.0
 20
-380.226721949329
 30
0.0
 40
3.175000160462246
 50
0.0182159565675973
 51
90.00000000000053
  0
ARC
  5
2B9
  8
DATA
  6
CONTINUOUS
 62
     7
 10
229.0
 20
-380.226721949329
 30
0.0
 40
3.175000160462246
 50
180.0182159565676
 51
270.0000000000005
  0
ARC
  5
2BA
  8
DATA
  6
CONTINUOUS
 62
     7
 10
229.0
 20
-380.226721949329
 30
0.0
 40
3.175000160462218
 50
269.9999999999995
 51
359.9817840434325
  0
ARC
  5
2BB
  8
DATA
  6
CONTINUOUS
 62
     7
 10
121.0
 20
-430.710669115884
 30
0.0
 40
3.175000160462218
 50
89.99999999999949
 51
179.9817840434324
  0
ARC
  5
2BC
  8
DATA
  6
CONTINUOUS
 62
     7
 10
121.0
 20
-430.710669115884
 30
0.0
 40
3.175000160462246
 50
0.0182159565675973
 51
90.00000000000053
  0
ARC
  5
2BD
  8
DATA
  6
CONTINUOUS
 62
     7
 10
121.0
 20
-430.710669115884
 30
0.0
 40
3.175000160462246
 50
180.0182159565676
 51
270.0000000000005
  0
ARC
  5
2BE
  8
DATA
  6
CONTINUOUS
 62
     7
 10
121.0
 20
-430.710669115884
 30
0.0
 40
3.175000160462218
 50
269.9999999999995
 51
359.9817840434325
  0
ARC
  5
2BF
  8
DATA
  6
CONTINUOUS
 62
     7
 10
229.0
 20
-430.710669115884
 30
0.0
 40
3.175000160462218
 50
89.99999999999949
 51
179.9817840434324
  0
ARC
  5
2C0
  8
DATA
  6
CONTINUOUS
 62
     7
 10
229.0
 20
-430.710669115884
 30
0.0
 40
3.175000160462246
 50
0.0182159565675973
 51
90.00000000000053
  0
ARC
  5
2C1
  8
DATA
  6
CONTINUOUS
 62
     7
 10
229.0
 20
-430.710669115884
 30
0.0
 40
3.175000160462246
 50
180.0182159565676
 51
270.0000000000005
  0
ARC
  5
2C2
  8
DATA
  6
CONTINUOUS
 62
     7
 10
229.0
 20
-430.710669115884
 30
0.0
 40
3.175000160462218
 50
269.9999999999995
 51
359.9817840434325
  0
ARC
  5
2C3
  8
DATA
  6
CONTINUOUS
 62
     7
 10
144.0
 20
-455.4527142077885
 30
0.0
 40
2.900000146563864
 50
0.0182159565707282
 51
90.00000000000055
  0
ARC
  5
2C4
  8
DATA
  6
CONTINUOUS
 62
     7
 10
144.0
 20
-455.4508702228987
 30
0.0
 40
2.900000146563892
 50
180.0182159565707
 51
270.0
  0
ARC
  5
2C5
  8
DATA
  6
CONTINUOUS
 62
     7
 10
144.0
 20
-455.4508702228987
 30
0.0
 40
2.900000146563912
 50
269.9999999999994
 51
359.9817840434292
  0
ARC
  5
2C6
  8
DATA
  6
CONTINUOUS
 62
     7
 10
206.0
 20
-455.4527142077885
 30
0.0
 40
2.900000146563912
 50
90.0
 51
179.9817840434293
  0
ARC
  5
2C7
  8
DATA
  6
CONTINUOUS
 62
     7
 10
206.0
 20
-455.4527142077885
 30
0.0
 40
2.900000146563864
 50
0.0182159565707282
 51
90.00000000000055
  0
ARC
  5
2C8
  8
DATA
  6
CONTINUOUS
 62
     7
 10
206.0
 20
-455.4508702228987
 30
0.0
 40
2.900000146563892
 50
180.0182159565707
 51
270.0
  0
ARC
  5
2C9
  8
DATA
  6
CONTINUOUS
 62
     7
 10
206.0
 20
-455.4508702228987
 30
0.0
 40
2.900000146563912
 50
269.9999999999994
 51
359.9817840434292
  0
ARC
  5
2CA
  8
DATA
  6
CONTINUOUS
 62
     7
 10
144.0
 20
-517.4330057786085
 30
0.0
 40
2.900000146563912
 50
90.0
 51
179.9817840434293
  0
ARC
  5
2CB
  8
DATA
  6
CONTINUOUS
 62
     7
 10
144.0
 20
-517.4330057786085
 30
0.0
 40
2.900000146563864
 50
0.0182159565707282
 51
90.00000000000055
  0
ARC
  5
2CC
  8
DATA
  6
CONTINUOUS
 62
     7
 10
144.0
 20
-517.4311617937187
 30
0.0
 40
2.900000146563892
 50
180.0182159565707
 51
270.0
  0
ARC
  5
2CD
  8
DATA
  6
CONTINUOUS
 62
     7
 10
144.0
 20
-517.4311617937187
 30
0.0
 40
2.900000146563912
 50
269.9999999999994
 51
359.9817840434292
  0
ARC
  5
2CE
  8
DATA
  6
CONTINUOUS
 62
     7
 10
206.0
 20
-517.4330057786085
 30
0.0
 40
2.900000146563912
 50
89.99999999999947
 51
179.9817840434293
  0
ARC
  5
2CF
  8
DATA
  6
CONTINUOUS
 62
     7
 10
206.0
 20
-517.4330057786085
 30
0.0
 40
2.900000146563892
 50
0.018215956570728
 51
90.0
  0
ARC
  5
2D0
  8
DATA
  6
CONTINUOUS
 62
     7
 10
206.0
 20
-517.4311617937187
 30
0.0
 40
2.900000146563864
 50
180.0182159565707
 51
270.0000000000006
  0
ARC
  5
2D1
  8
DATA
  6
CONTINUOUS
 62
     7
 10
206.0
 20
-517.4311617937187
 30
0.0
 40
2.900000146563912
 50
270.0
 51
359.9817840434292
  0
ARC
  5
2D2
  8
DATA
  6
CONTINUOUS
 62
     7
 10
153.0
 20
-508.4358984724615
 30
0.0
 40
3.000000151617753
 50
0.0182159565689315
 51
89.99999999999947
  0
ARC
  5
2D3
  8
DATA
  6
CONTINUOUS
 62
     7
 10
153.0
 20
-508.4358984724615
 30
0.0
 40
3.000000151617753
 50
180.018215956569
 51
269.9999999999994
  0
ARC
  5
2D4
  8
DATA
  6
CONTINUOUS
 62
     7
 10
153.0
 20
-508.4358984724615
 30
0.0
 40
3.000000151617769
 50
270.0000000000005
 51
359.9817840434311
  0
ARC
  5
2D5
  8
DATA
  6
CONTINUOUS
 62
     7
 10
165.5
 20
-508.6856600387742
 30
0.0
 40
2.500000126348133
 50
0.0182159565689315
 51
89.99999999999936
  0
ARC
  5
2D6
  8
DATA
  6
CONTINUOUS
 62
     7
 10
165.5
 20
-508.6856600387742
 30
0.0
 40
2.500000126348133
 50
180.018215956569
 51
269.9999999999993
  0
ARC
  5
2D7
  8
DATA
  6
CONTINUOUS
 62
     7
 10
165.5
 20
-508.6856600387742
 30
0.0
 40
2.500000126348027
 50
270.0000000000007
 51
359.9817840434311
  0
ARC
  5
2D8
  8
DATA
  6
CONTINUOUS
 62
     7
 10
197.0
 20
-508.4358984724615
 30
0.0
 40
3.000000151617769
 50
90.00000000000054
 51
179.981784043431
  0
ARC
  5
2D9
  8
DATA
  6
CONTINUOUS
 62
     7
 10
197.0
 20
-508.4358984724615
 30
0.0
 40
3.000000151617753
 50
0.0182159565689315
 51
89.99999999999947
  0
ARC
  5
2DA
  8
DATA
  6
CONTINUOUS
 62
     7
 10
197.0
 20
-508.4358984724615
 30
0.0
 40
3.000000151617753
 50
180.018215956569
 51
269.9999999999994
  0
ARC
  5
2DB
  8
DATA
  6
CONTINUOUS
 62
     7
 10
197.0
 20
-508.4358984724615
 30
0.0
 40
3.000000151617769
 50
270.0000000000005
 51
359.9817840434311
  0
ARC
  5
2DC
  8
DATA
  6
CONTINUOUS
 62
     7
 10
153.0
 20
-464.4498850996215
 30
0.0
 40
3.000000151617769
 50
90.00000000000054
 51
179.981784043431
  0
ARC
  5
2DD
  8
DATA
  6
CONTINUOUS
 62
     7
 10
153.0
 20
-464.4498850996215
 30
0.0
 40
3.000000151617753
 50
0.0182159565689315
 51
89.99999999999947
  0
ARC
  5
2DE
  8
DATA
  6
CONTINUOUS
 62
     7
 10
153.0
 20
-464.4498850996215
 30
0.0
 40
3.000000151617753
 50
180.018215956569
 51
269.9999999999994
  0
ARC
  5
2DF
  8
DATA
  6
CONTINUOUS
 62
     7
 10
153.0
 20
-464.4498850996215
 30
0.0
 40
3.000000151617769
 50
270.0000000000005
 51
359.9817840434311
  0
ARC
  5
2E0
  8
DATA
  6
CONTINUOUS
 62
     7
 10
197.0
 20
-464.4498850996215
 30
0.0
 40
3.000000151617769
 50
90.00000000000054
 51
179.981784043431
  0
ARC
  5
2E1
  8
DATA
  6
CONTINUOUS
 62
     7
 10
197.0
 20
-464.4498850996215
 30
0.0
 40
3.000000151617753
 50
0.0182159565689315
 51
89.99999999999947
  0
ARC
  5
2E2
  8
DATA
  6
CONTINUOUS
 62
     7
 10
197.0
 20
-464.4498850996215
 30
0.0
 40
3.000000151617753
 50
180.018215956569
 51
269.9999999999994
  0
ARC
  5
2E3
  8
DATA
  6
CONTINUOUS
 62
     7
 10
197.0
 20
-464.4498850996215
 30
0.0
 40
3.000000151617769
 50
270.0000000000005
 51
359.9817840434311
  0
ARC
  5
2E4
  8
DATA
  6
CONTINUOUS
 62
     7
 10
54.58749989540871
 20
-212.0576070718386
 30
0.0
 40
4.999999895408622
 50
89.99999880147108
 51
180.000001200332
  0
ARC
  5
2E5
  8
DATA
  6
CONTINUOUS
 62
     7
 10
295.4125001045913
 20
-212.0576070718386
 30
0.0
 40
4.999999895408622
 50
359.9999987996681
 51
90.00000119852893
  0
ARC
  5
2E6
  8
DATA
  6
CONTINUOUS
 62
     7
 10
54.58749989540947
 20
-589.4076072932244
 30
0.0
 40
4.999999895409375
 50
179.9999987996739
 51
270.0000011985203
  0
ARC
  5
2E7
  8
DATA
  6
CONTINUOUS
 62
     7
 10
295.4125001045905
 20
-589.4076072932244
 30
0.0
 40
4.999999895409361
 50
269.9999988014795
 51
0.0000012003260963
  0
TEXT
  5
2E8
  8
DATA
 62
     7
 10
499.9999999999999
 20
-1156.904765
 30
0.0
 40
24.4326171875
  1
Control 5-Y3
 41
0.7
 11
499.9999999999999
 21
-1132.4721478125
 31
0.0
 73
     3
  0
ENDSEC
  0
EOF
